#----------------------------------PLEASE NOTE---------------------------------#
#This file is the author's own work and represents their interpretation of the #
#song. You may only use this file for private study, scholarship, or research. #
#------------------------------------------------------------------------------##

Transcribed by - Dave Coulthard [email protected]
Capo 1

That's How You Know It's love - Francis Black

If you get out in the driving rain Stand in the eye of a hurricane
C C7 E7 Am C C7 F
And never think twice
G
If you turn your back on selfishness And your thoughts are for someone else
C C7 E7 Am C C7 F
'Cos they changed your life
G
That's how you know it's love
C G7*
That's how you know it's meant to be
C G7**
When the span of forever just never seems long enough
C D# Dm
That's how you know it's love
G C G7*
When your heart insists that you give it all When you no longer fear the fall
And you just let go
When the past is finally dead and gone Fate leads you somewhere to the one
That has your soul

That's how you know it's love
That's how you know it's meant to be
When the span of forever just never seems long enough
That's how you know it's love

No part of you questions no part of you doubts
G E7 Am
You're only sure this is what love's about
Bb Fmaj7
Nothing nor no-one can stand in your way
E7 C
Or keep you from saying what your heart is dying to say
Am F/A G G7*

That's how you know it's love
That's how you know it's meant to be
When the span of forever just never seems long enough
That's how you know it's love
That's how you know it's love
That's how you know it's meant to be
That's how you know it's love
That's how you know

-3-------0-------1------------------------|
-3-------3-------3------------------------|
-0-------1-------0------------------------|
-3-------0-------3------------------------|
-2-------2-------x------------------------|
-3-------0-------3------------------------|
G7* E7 G7**
-- s -- Repeat 1
Intro -0--1--1-------3--1--0-|----------3-|--------|-----------1--|------|
-----------------------|--------3---|--------|---------3----|-----------|
-0--2--2-------4--2--0-|------0-----|--------|-------0------|-----------|
-----------------------|----3-------|--------|-----3--------|-----------|
-----------------------|--2---------|--------|--------------|-----------|
-----------------------|-3----------|--------|---3----------|-----------|
[ 1 ] [ 2 ] [ 3 ] [ 4 ]




Ваше мнение



Капча