From: [email protected] (Mark Schnitzius)
Subject: CRD: Frank Black, "Places Named After Numbers"
PLACES NAMED AFTER NUMBERS
Frank Black
A love song written for a black hole.
The string-arranged intro is skipped here.
--Mark
------
[Guitar intro:]
-------------------------------------------------
--0-----------------------0----------------------
----1-----------------------1---------------0----
------2------0--4>>2--2-------2------0--------4--
--------2--3--------------------2--3-------------
---------------------------------------3--2------
----------------------
--0-------------------
----1-----------------
------2------0--2--4--
--------2--3----------
----------------------
D E D E A C D E
G E A G
Beyond below above A gravity that slumbers
E A G
At the center of Places named after numbers
E
A different kind of love
A C#m
She was right
A C#m
She was right there
A C#m D F
She was right there all the time
Am E
Collapsing all the way
And though it seems from here That she was never there
Light beams disappear Into her blackened hair
I wonder if they reappear
[Middle guitar part: slightly different from the intro]
-------------------------------------------------
--0-----------------------0----------------------
----1-----------------------1---------------0----
------2------0--4>>2--2-------2------0--------4--
--------2--3--------------------2--3-------------
---------------------------------------3--2------
-----------------------
-----------------------
--1--------------------
----2---------0--2--4--
------2--2--3----------
-----------------------
D E D E A C D E D E A C D E
[Repeat chorus and end.]
**************************************************************
Mark schnitzius isx corporation [email protected]
me




Ваше мнение



Капча