From: [email protected]
Date: Wed, 12 Jun 1996 18:28:22 -0400
Pie in the Sky
Frank Black: "Teenager of the Year"
Transcribed: Jim Harney 5/29/96
Email: "[email protected]"
-Verse 1-
E
It takes photon power
C#
And 8 minutes of an hour
A B
To make it to our sun
E
And I know it sounds weird
C#
But it'll take 4 years
A F#
To make the next one
-Chorus 1-
B G# C# C D
Expanding boarder, that's the sauce of chaos
E C# G
And that's an order...
-Verse 2-
So stomp your feet
And clap your hands
Get out of your seat and do a little dance
Now lift your voice
And sing with glee
Now listen carefully to me
-Chorus 2-
Desert your quarters, behold the pie in the sky
And that's an order...
Intro
E C A
---------------------------------------------------------------------
---------------------------------------------------------------------
----9------------------------5---------------------------------------
----9------------------------5------------------------7--------------
----7------------------------3------------------------7--------------
------------------------------------------------------5--------------
Verse
E C# A B E C# A F#
---------------------------------------------------------------------
---------------------------------------------------------------------
----9---6-----------9---6--------------------------------------------
----9---6---7---9---9---6---7---4------------------------------------
----7---4---7---9---7---4---7---4------------------------------------
------------5---7-----------5---2------------------------------------
Chorus
B G# C# C D E C# G D C# G
---------------------------------------------------------------------
---------------------------------------------------------------------
----4-------6---5---7-------9---6-------9---6------------------------
----4---6---6---5---7-------9---6---5---9---6---5--------------------
----2---6---4---3---5-------7---4---5---7---4---5--------------------
--------4---------------------------3-----------3--------------------
Electric guitar w/ distortion for best results.
Play with busy up-beat rhythm.




Ваше мнение



Капча