e-----------------------------------------------------------------
b-----------------------------------------------------------------
g-----------------------------------------------------------------
d--10-----------x-x-x-x-x-x--10------------------10---------------
a---8---10--10--x-x-x-x-x-x---8---10---12---10----8---10---12--12-
e--------8---8--x-x-x-x-x-x--------8----8----8---------8----8---8-



-----------------------------------------------
-----------------------------------------------
-----------------------------------------------
--x-x-x-x--x-x-x-x--10------------8------------
--x-x-x-x--x-x-x-x---8--10---12-------12---10--
--x-x-x-x--x-x-x-x-------8----8--------8----8--

D F Bb F G (2x)

[CHORUS]
D F Bb F
Hermaphroditos is my name
G
Whatcha playing?
D F Bb F
Hermaphroditos is my name
G
Worship me
D F Bb F
Hermaphroditos is my name
G
What are you saying
D F Bb F G
Hermaphroditos is my name?

[VERSE 1]
D C
How do you love me
Bb Am
Deeply with your scalpel
G F Bb
I got a mouthful of suicidal drugs
D C
I am a dog
Bb Am
I am a sculpture
G
You hate my features,
F Bb
You name me for a god

[CHORUS]
D F Bb F
Hermaphroditos is my name
G
Whatcha playing?
D F Bb F
Hermaphroditos is my name
G
Worship me
D F Bb F
Hermaphroditos is my name
G
What are you saying
D F Bb F G
Hermaphroditos is my name?

[SOLO]

D F Bb F G (4x)

D C Bb Am G F Bb

[VERSE 2]
D C
Forget your yin
Bb Am
And go f--k your yang
G
It seems that you rang
F Bb F Bb
And it seems I'm only answering

[BRIDGE]
F Bb C7
Remember when, I was almost ready?
F Bb C7
But it was then, that i was already gone
Bb G
And I'm still around
F G
But who wants to listen
G* Bb
To my voice in your prison?

[CHORUS]
D F Bb F
Hermaphroditos is my name
G
Whatcha playing?
D F Bb F
Hermaphroditos is my name
G
Worship me
D F Bb F
Hermaphroditos is my name
G
What are you saying
D F Bb F G
Hermaphroditos is my name?
D F Bb F G
Hermaphroditos is my name
D F Bb F
Hermaphroditos is my name

end on F

C7:
e--0--
b--1--
g--3--
d--2--
a--3--
e-----


Ваше мнение



Капча