Fiddle Riddle By: Frank Black
Album: Teenager of the Year
Tablature By: David Carney
e-mail: [email protected]
Moral support: Jonah Grifenhagen

Very cool song.

Intro:

G|----------------|----------35---|----------------|
D|----------------|----------------|----------------|
A|33333---------2|33333----------|55555---------2|
E|----------------|----------------|----------------|
1 & 2 & 3 & 4 & 1 & 2 & 3 & 4 & 1 & 2 & 3 & 4 &

G|----------35---|----------------|
D|----------------|----------------|
A|33333----------|2-2-2-2-3-3-3-3-|
E|----------------|----------------|
1 & 2 & 3 & 4 & 1 & 2 & 3 & 4 &

Verse:
G|----------------|----------------|----------------|
D|----------00----|------------3/53|----------32320-|
A|33333--------0-|----------------|----------------|
E|------------1---|00000----1-1----|33333-----------|
1 & 2 & 3 & 4 & 1 & 2 & 3 & 4 & 1 & 2 & 3 & 4 &

Bridge:
G|--------------------------------|----------------|
D|--------------------------------|------------320-|
A|3-3-3-3-3------------------5---|33333-----------|
E|----------------1-1--1--3/5-----|--------33-3----|
1 & 2 & 3 & 4 & 1 & 2 & 3 & 4 &

Chorus:
G|----------------|----------------|----------------|
D|------------3/53|00000-----------|----------------|
A|33333---00-0----|----------------|3333----------01|
E|----------------|--------1-------|------3-1----3--|
1 & 2 & 3 & 4 & 1 & 2 & 3 & 4 & 1 & 2 & 3 & 4 &

G|----------------|
D|------5-3-------|
A|3333------------|
E|----------------|
1 & 2 & 3 & 4 &

Play verse 2 times

Bridge

G|----------------|----------------|----------------|
D|------------3/53|00000-----------|----------------|
A|33333---00-0----|----------------|333303---------2|
E|----------------|--------1-------|----------------|
1 & 2 & 3 & 4 & 1 & 2 & 3 & 4 & 1 & 2 & 3 & 4 &

G|----------------|----------------|----------------|
D|----------------|--00------------|----------------|
A|333303---------2|33--03----------|33-303----------|
E|----------------|----------------|----------------|
1 & 2 & 3 & 4 & 1 & 2 & 3 & 4 & 1 & 2 & 3 & 4 &

G|--------|
D|--------|
A|2-2-3-3-|
E|--------|
1 & 2 &

Intro

Verse

Bridge

Chorus

G|--------|
D|--------|
A|--------|
E|3-3-3-3-|
1 & 2 &

Chorus

Verse

TWAH TWAH




Ваше мнение



Капча