E--5--------5-|--4--------4-|--2--------2-|--4--------4--
B-----5-------|-----5-------|-----2-------|-----5--------
g--------6----|--------6----|--------3----|--------6-----
D-------------|-------------|-------------|--------------
A-------------|-------------|-------------|--------------
E-------------|-------------|-------------|--------------
A C#m F# C#m
E--5-----5-----|--7---8-----
B-----6-----6--|--6---6-----
g--------------|--x---x-----
D--------------|------------
A--------------|------------
E--------------|------------
Dm
[INTRO pt. 2] - A C#m F# C#m D (4x) over lead
E------------------------------------------------
B------------------------------------------------
g------------------------------------------------
D---------------6--4--------------4---2----------
A---0---2---4-----------------------------4---0--
E------------------------------------------------

E------------------------------------------------
B------------------------------------------------
g------------------------------------------------
D---------------6--4--------------4---2----------
A---0---2---4-----------------------------4---0--
E------------------------------------------------
E---------------------------------------------------------
B---------------------------------------------------------
g---------------------------------------------------------
D---------------6--4---------------6--4-----6^---4--4--2--
A----0---2---4----------0---2---4-------------------------
E---------------------------------------------------------
E-------------------------------------
B-------------------------------------
g-------------------------------------
D--6^---4--4---2-----4--2-------------
A---------------------------4---0-----
E-------------------------------------
[VERSE 1]
A C#m F# C#m D
Where the water glows
A C#m F# C#m D
Where the water glows
A C#m F#
Bluish all in black
C#m D
Where the forest grows
A C#m F#
I want to go back
C#m D
I want to go back
A C#m F# C#m D
[VERSE 2] - A C#m F# C#m D
Let the moody out
Let the moody out
Ugly mood in you
Open up your mouth
Kill it with your shoe
Kill it with your shoe
[VERSE 3] - same chords
If your heart is sad
If your heart is sad
Give your dog a bone
See her in the sand
This is your new home
This is your new home
This is your new home
This is your new home
[OUTRO]
E--5--------5-|--4--------4-|--2--------2-|--4--------4--
B-----5-------|-----5-------|-----2-------|-----5--------
g--------6----|--------6----|--------3----|--------6-----
D-------------|-------------|-------------|--------------
A-------------|-------------|-------------|--------------
E-------------|-------------|-------------|--------------
A C#m F# C#m
E--5-------5------|--8--7----5---
B--6---6---6---6--|--6--6----5---
g--7---7---7---7--|----------6---
D--7-------7------|----------7---
A-----------------|----------7---
E-----------------|----------5---
Dm A




Ваше мнение



Капча