E: Fri, 24 Apr 1998 22:22:28 +0200
From: Olivier Daclin
Subject: c/cabrel_francis/sarbacane_solo.tab
Interpret: Francis Cabrel
Song: Sarbacane
Transcriber: Olivier Daclin ([email protected])
This is just the guitar solo...
X^Y: play X and bend to Y
X^ : play X and bend one tone
V : release
~ : vibrato
\ : slide down
XnY: play X then pull of to Y
-7-7---7-7-------------------------------------------
-7-7---7-7---------------------------------7\--------
------------9^10v9~-----9^11-v9-7----------7\--------
-----------------------------------9~----------------
-----------------------------------------------------
-----------------------------------------------------
-7-7---7-7-----------------------------6-------------
-7-7---7-7-----------------------------7-------------
--------------9^11~~------9^11v9--7----6-------------
-----------------------------------------------------
-----------------------------------------------------
-----------------------------------------------------
----7-----------7------------------------------------
------7---10p7---------------------------------------
-9^-----------9^--9^--v9-7---7-----------------------
---------------------------9-------------------------
-----------------------------------------------------
-----------------------------------------------------
----7-----------7------------------------------------
------7---10p7---------------------------------------
-9^-----------9^--9^--v9--7~~------------------------
-----------------------------------------------------
-----------------------------------------------------
-----------------------------------------------------
-10-9-7----------------------------------------------
-10-9-7-10-9-7-9--------------------------7\---------
-------------7-9^v9-7-----9^-v9-7---------7\---------
----------------------9-----------9-9-----------4----
------------------------------------------------4----
------------------------------------------------2----




Ваше мнение



Капча