Utopia Parkway
Fountains Of Wayne
Submitted By Soloist345

Check this tab. I didn't see any other Parkway tabs with the solo on it,
so I took it upon myself to do it. I assure you this tab is 100% correct.
If there is anything wrong, I assure you it is merely a typographical error.

Bb
Well I?ve been saving for a custom van
Dm
And I?ve been playing in a cover band
Eb
And my baby doesn?t understand
C
Why I never turned from boy to man

Bb Ab G Bb Ab G
I got it made I got it down I am the king of this island town
Bb Ab G C Eb
I?m on my own I?m on my way Down Utopia, Utopia Parkway

Bb Ab
E---------------13-----------------------------13-------------------|
B---11--13--11------11--13--11-----11--13--11-----11--13--11--------|
G-------------------------------------------------------------------|
D-------------------------------------------------------------------|
A-------------------------------------------------------------------|
E-------------------------------------------------------------------|
G
E---------------13------------------|
B---12--13--12------12?-12H13--12---|
G-----------------------------------| x2
D-----------------------------------|
A-----------------------------------|
E-----------------------------------|

Bb
And while I?m waiting for my time to come
Dm
I?m gonna get a little shopping done
Eb
I?ll get some paper and a staple gun
Gb
And put my name in front of everyone
Bb Ab G Bb Ab G
I got it made I got it down I am the king of this goddamn town
Bb Ab G C Eb
I?m on my own I?m on my way Down Utopia, Utopia Parkway

Bb Ab
E---------------13-----------------------------13-------------------|
B---11--13--11------11--13--11-----11--13--11-----11--13--11--------|
G-------------------------------------------------------------------|
D-------------------------------------------------------------------|
A-------------------------------------------------------------------|
E-------------------------------------------------------------------|
G
E---------------13------------------|
B---12--13--12------12?-12H13--12---|
G-----------------------------------| x2
D-----------------------------------|
A-----------------------------------|
E-----------------------------------|

C
Gonna let my hair grow down my back
Eb
Gonna brace myself for the big attack
Bb D Eb
And they?ll never know what hit them when I?m gone

Bb Ab
E---------------13-----------------------------13-------------------|
B---11--13--11------11--13--11-----11--13--11-----11--13--11--------|
G-------------------------------------------------------------------|
D-------------------------------------------------------------------|
A-------------------------------------------------------------------|
E-------------------------------------------------------------------|
G
E---------------13------------------|
B---12--13--12------12?-12H13--12---|
G-----------------------------------| x4
D-----------------------------------|
A-----------------------------------|
E-----------------------------------|




Ваше мнение



Капча