Song : Sink To The Bottom
Band : Fountain Of Wayne
Tabbed By : Diamond Jerry ([email protected])
E G# C#m - A
I wanna sink to the bottom with you (2x)
E G# C#m
The ocean is big and blue
A E G# C#m
I just wanna sink to the bottom with you

(Hard Distortion!)
A E G# C#m
Cars on the highway, planes in the air
A E G# C#m
Everyone else is going somewhere
A E G# C#m
But I'm going nowhere, gettin' there soon
A E G# C#m
I might as well just sink down with you

A E G# C#m - A
I wanna sink to the bottom with you (2x)
E G# C#m
The ocean is big and blue
A E G# C#m
I just wanna sink to the bottom with you
A
I just wanna...
(Bridge)

E - B - G - A (4x)
(Hard Distortion!)
A E G# C#m
Out on the highway, up in the air
A E G# C#m
Everyone else is going somewhere
A E G# C#m
But I'm going nowhere, I'll be there too
A E G# A
I might as well go under with you
E G# C#m - A
I wanna sink to the bottom with you (2x)
E G# C#m
The ocean is big and blue
A E G# C#m
I just wanna sink to the bottom with you

(Hard Distortion!)
A E G# C#m
I just wanna sink to the bottom with you
E G# C#m - A
I wanna sink to the bottom with you
E G# C#m
The ocean is big and blue
A E G# C#m
I just wanna sink to the bottom with you
A
I just wanna...
(Bridge)

E - B - G - A (4x)

I just wanna...
(SOLO)
E - B - G - A (4x)
e---------------------------------------------|
B---9-9-9-9---7-7-7-7-7-7-7-7----5-5-5-5/---|
G---------------------------------------------|
D---------------------------------------------| Repeat 4x
A---------------------------------------------|
E---------------------------------------------|
End on

E
e----|
B----|
G----|
D--9-|
A--9-|
E--7-|
(Chord)
E G# C#m A B G
e---0----4----4----5----2----3-----|
B---0----4----5----5----2----3-----|
G---1----5----6----6----4----4-----|
D---2----6----6----7----4----5-----|
A---2----6----4----7----2----5-----|
E---0----4----4----5----2----3-----|
Any comments or corrections,just mail me to [email protected]
/ICQ #115343571




Ваше мнение



Капча