-------------------------------------------------------------------------------
I Want To Know What Love Is - Foreigner
-------------------------------------------------------------------------------
Tabbed by: Fred Savard
Email: [email protected]
Song: I Want To Know What Love Is (Jones)
Group: Foreigner
Album: Agent Provocateur
Year: 1985
INTRO: Em ' ' D | G ' ' ' | C ' | Em ' ' ' ||
VERSES: Play Intro 2x
I've gotta take a little time, a little time to think things over.
I better read between the lines, in case I need it when I'm older.
Now, this mountain I must climb feels like the world upon my shoulders.
Through the clouds I see love shine. It keeps me warm as life grows colder.
C/A Am C/A Am
In my life there's been heartache and pain.
C/A Am D/A Am
I don't know if I can face it again.
C/A Am D/A Am C G/B Am G C/D
Can't stop now. I've traveled so far to change this lonely life.
G Em D *2* Am Em D *2*
I want to know what love is. I want you to show me.
G Em D *2* Am Em D D7 *1* Em *1*
I want to feel what love is. I know you can show me.
I'm gonna take a little time, a little time to look around me.
I've got nowhere to hide. It looks like love has fin'lly found me.
*1*
|------------------|
|------------------|
|-------------0----|
|---------0-2------|
|-------2----------|
|------------------|
*2*
|------------------|
|---------3-----0--|
|------------2-----|
|------------------|
|------------------|
|------------------|
tabbed by [email protected]




Ваше мнение



Капча