Artist:Foreigner
Song:Dirty White Boy
Album:Head Games
Tabbed By:Gary Hricewich
E-mail:[email protected]


Intro ect ect Part1 ect
G---------------|---------------|--------------------|
D---------------|---------------|--------------------|
A---------------|-5-5-5-5-------|--------------0-1-2-|
E---3-3-3-3-----|---------------|-3-3-3-3------------|


Verse ect ect ect ect
G-----------|---------|----------------|---------|--------|
D-----------|---------|----------------|---------|--------|
A---3-3-3-3-|---------|-0-1-2--3-3-3-3-|---------|--0-3-4-|
E-----------|-3-3-3-3-|----------------|-3-3-3-3-|--------|


Chorus Part1End
G--------------------------------------------------------|
D----------------------4-5-7-----------------------------|
A---5-5-5-5-5-5-5-5--5---------5-5-5-5-5-5-5-5-5-5-5---3-|
E--------------------------------------------------------|
THEN:Part1/Vocals
Part1/Lead
Part1/Vocals


Outro ect 2x 2x
G---|----------|--------------------------|---------------------------|-|
D---|*---------|--------------------4-5-7-|--------------------------*|-|
A---|*---------|-5-5-5-5-5-5-5-5--5-------|-5-5-5-5-5-5-5-5-5-5-5--3-*|-|
E---|--3-3-3-3-|--------------------------|---------------------------|-|




Ваше мнение



Капча