I've seen many people try to tab Cold As Ice but I've yet to see someone attempt to tab
solo, let alone write out the chords in the right key. The chord progression is fairly
I'll write out the chords on the record as soon as I figure them out, they dont sound too difficult.

Here's the walking notes the electric plays in the benginning, as well as the paino if
listen closely:

1st walk up:
e---------|
B---------|
G---------|
D---------|
A---4-6---|
E-7-------|

2nd walk up:
e---------|
B---------|
G---------|
D---------|
A---4-----|
E-4---7---|

Guitar Solo: (Gotta Love good ol' Mick)
e-------------------------------------14-14/18-14------------|
B-------------------------------9p7h9-------------16v-p14----|
G-------------------6p4h6-8p6h8------------------------------|
D-------------6p4h6------------------------------------------|
A-------6p4h6------------------------------------------------|
E-7p4h7------------------------------------------------------|

e-18-12b14--------------|
B----------16-14-16v----|
G-----------------------|
D-----------------------|
A-----------------------|
E-----------------------|

e-------------------------------------7-7/11-11-9------------|
B-------------------------------9p7h9-------------12-11v-----|
G-------------------6p4h6-8p6h8------------------------------|
D-------------6p4h6------------------------------------------|
A-------6p4h6------------------------------------------------|
E-7p4h7------------------------------------------------------|

e-------------------------------14p12h14p12-18p16h18p16h18v--|
B-12p11h12p11h12p11-16p14h16p14------------------------------|
G------------------------------------------------------------|
D------------------------------------------------------------|
A------------------------------------------------------------|
E------------------------------------------------------------|

I've listened to the record and the scale is definately an Ab Blues scale. This is
a transcription so there's probably going to be errors. Mick Jones does the hammer
ons and offs fairly fast on this but I'm quite sure this is pretty accurate. The
last set of hammers starting at the 12th fret is the spot I had the most rouble
because I think Mick another guitar line over it playing something much higher up
the fretboard, therefore making the notes of the main lead line slightly diffiuclt
to pick out. Anyhow I hope this helps and keep on rockin'!

-Chris




Ваше мнение



Капча