Song: X-Static
Artist: Foo Fighters
Album: Foo Fighters
This is a very easy song and it sounds really great. It has too main riffs.
And two guitars. It is standard tuning, and it sounds PERFECT.
Intro and Verse:
(Guitar 1)
e:---------------------------|
B:---------------------------|
G:---8---8---8---8-8---8---8-|
D:---8---8---8---8-8---8---8-|
A:-5/6---6---6---6-6---6---6-|
E:---------------------------|
Later Intro and Verse:
(Guitar 2)
e:---------------------------------------------------------------|
B:---------------------------------------------------------------|
G:---------------------------------------------------------------|
D:-8---8---8---8---8---8----7----6---6---6---6---6---6---6----8--|
A:-8---8---8---8---8---8----7----6---6---6---6---6---6---6----8--|
E:-6---6---6---6---6---6----5----4---4---4---4---4---4---4----6--|
e:---------------------------------------------------------------|
B:---------------------------------------------------------------|
G:---------------------------------------------------------------|
D:-4---4---4---4---4---4----5----6---6---6---6---6---6---6----5--|
A:-4---4---4---4---4---4----5----6---6---6---6---6---6---6----5--|
E:-2---2---2---2---2---2----3----4---4---4---4---4---4---4----3--|
e:----------------------------------------------------------------------|
B:----------------------------------------------------------------------|
G:----------------------------------------------------------------------|
D:-4---4---4---4---4---4---4----6----3---3---3---3---3---3---3---3---3--|
A:-4---4---4---4---4---4---4----6----3---3---3---3---3---3---3---3---3--|
E:-2---2---2---2---2---2---2----4----1---1---1---1---1---1---1---1---1--|
e:----------------------------------------|
B:----------------------------------------|
G:----------------------------------------|
D:-4---5---5---5---5---5---5---5---5---5--|
A:-4---5---5---5---5---5---5---5---5---5--|
E:-2---3---3---3---3---3---3---3---3---3--|
Chorus:
e:-------------------------------------------|
B:-------------------------------------------|
G:-5--5--5--5--3--3--3-----------------------|
D:-5--5--5--5--3--3--3--3--3--3--3--3--3--3--|
A:-3--3--3--3--1--1--1--3--3--3--3--3--3--3--|
E:----------------------1--1--1--1--1--1--1--|

e:-------------------------|------------------------|
B:-------------------------|------------------------|
G:-6--6--6--6--5--5--5--4--|------------------------|
D:-6--6--6--6--5--5--5--4--|------------------------|
A:-4--4--4--4--3--3--3--2--|-2---/4---/6---/8---/1--|
E:-------------------------|------------------------|
Any questions about it? E-mail me at [email protected]
Thanks




Ваше мнение



Капча