Foo Fighters - Wind Up
(Normal Tuning)
Intro
e||---------------------------2---------------------------2----||
B||----0-0-0-0-0-0-0-0-0-0-0--3----0-0-0-0-0-0-0-0-0-0-0--3-2--||
G||--2-4-4-4-4-4-4-4-4-4-3-2--2--2-4-4-4-4-4-4-4-4-4-3-2--2-2--||
D||---------------------------0---------------------------0-2--||
A||---------------------------------------------------------0--||
E||------------------------------------------------------------||
Verse
(Guitar 1)
e||--------------------------2-|-------------------------2----||
B||--------------------------3-|-------------------------3-2--||
G||--------------------------2-|-------------------------2-2--||
D||--9-9-9-7-8-9-7-8-9-8-7---0-|-9-9-9-7-8-9-7-8-9-8-7---0-2--||
A||--9-9-9-7-8-9-7-8-9-8-7-----|-9-9-9-7-8-9-7-8-9-8-7-----0--||
E||--7-7-7-5-6-7-5-6-7-6-5-----|-7-7-7-5-6-7-5-6-7-6-5--------||
(3x)
(Guitar 2)
Same As Intro
Chorus
e||-------------------------------------------------------------------||
B||-------------------------------------------------------------------||
G||----------------------------------7-7-7-7-7-7-7-7-9-9-9-9-9-9-8-7--||
D||--9-9-9-9-9-9-9-9-7-7-7-7-7-7-7-7-7-7-7-7-7-7-7-7-9-9-9-9-9-9-8-7--||
A||--9-9-9-9-9-9-9-9-7-7-7-7-7-7-7-7-5-5-5-5-5-5-5-5-7-7-7-7-7-7-6-5--||
E||--7-7-7-7-7-7-7-7-5-5-5-5-5-5-5-5----------------------------------||
Bridge
e||-----------------------------------------|
B||-----------------------------------------|
G||--4-4-4-4-6-6-6-6-8-8-8-8-11-3-3-3-3---3-|
D||--x-x-x-x-x-x-x-x-x-x-x-x-x--x-x-x-x-6-x-|
A||--2-2-2-2-4-4-4-4-6-6-6-6-9--1-1-1-1-x-1-|
E||-------------------------------------4---|
e|-------------------------------------------------------||
B|-------------------------------------------------------||
G|-9--7--9--8--4-----6--4--3--9--7--9--8--4-----6--8--9--||
D|-x--x--x--x--x--6--x--x--x--x--x--x--x--x--6--x--x--x--||
A|-7--5--7--6--2--x--4--2--1--7--5--7--6--2--x--4--6--7--||
E|----------------4--------------------------4-----------||
Interlude (Wah-wah pedal)
(Guitar 1)
e||-----------------------||
B||-----------------------||
G||--9-9-9-9-9-9-9-9-9-9--||
D||--x-x-x-x-x-x-x-x-x-x--||
A||--7-7-7-7-7-7-7-7-7-7--||
E||-----------------------||
(Guitar 2)
e||-------------------------------||
B||-------------------------------||
G||--2---------------2------------||
D||--2-4-2-3-4-4-4---2-4-2-3-4-4--||
A||--0-4-2-3-4-4-4---0-4-2-3-4-4--||
E||----2-0-1-2-2-2-----2-0-1-2-2--||
___________________________




Ваше мнение



Капча