Song: Wattershed
Artist: Foo Fighters
Album: Foo Fighters
Tabbed by Serena Di Iulio ICQ: 38559568
Member of the Bass Tab Archive Tabbing Army ~
http://www.basstabarchive.com
Intro:
G||---------------------------|------------------------||
D||*--------------------------|-----------------------*||
A||*--------------------------|-----------------------*||
E||---4h-6--6--6--6--6--4h-6--|--6--6--4----7p-6-------||

----------------------|----------------------|
----------------------|----------------------|
----------------------|--6------6----6--6----|
--2------2----2--2----|----------------------|

Verse:
G||---------------------------|------------------------||
D||*--------------------------|-----------------------*||
A||*--------------------------|-----------------------*||
E||---4h-6--6--6--6--6--4h-6--|--6--6--4----7p-6-------||

----------------------|----------------------|
----------------------|----------------------|
----------------------|--6------6----6--6----|
--2------2----2--2----|----------------------|

-------------------------|------------------|------------------------|
-------------------------|------------------|------------------------|
-------------------------|------------------|--------------4---------|
--7--6--4--7--6--4--1----|------------------|--4--4--4--4-------4----|

-------------------|--------------------------|
-------------------|--------------------------|
-------------------|--------------------------|
------------5------|--6--6--6--6--4h-6--6--6--|

-----------------------|--------------------------|
-----------------------|--------------------------|
-----------------------|--------------------------|
--6--6--4----7p-6------|--4h-6--6--6--6--6--4h-6--|

------------------------|
------------------------|
------------------------|
--6--6--4----7p-6-------|

Pre chorus:
---------------------|-----------------------|---------------------|
---------------------|-----------------------|---------2-----------|
---------------------|-----------------------|--4------------------|
--4------0------6----|----6--6--6--4h-6------|----------------4----|

-----------------------|---------------------|-----------------------|
-----------------------|---------------------|-----------------------|
-----------------------|--4------------------|-----------------------|
----4--4--4--3--4------|---------7------6----|----6--6--6--4h-6------|

-----------|
2*---------|
4*--4------|
-------4---|

Chorus:
x3
|----------------------------|----------------------|
|4*--------------------------|3*--------------------|
|4*--------------------------|4*----------------2---|
|----2p-1--1--1--0h-1--1--0h-|----1--0h-1--2--------|

--------------------------|-----------------------|
--------------------------|-----------------------|
--------------------------|----------------2------|
--2p-1--1--1--0h-1--1--0h-|--1--0h-1--2-----------|

Intro
Verse x2
Pre chorus
Chorus
Verse
Pre chorus
Chorus
Verse




Ваше мнение



Капча