From: [email protected] (Michael M Slusarz)
Subject: TAB: "Up In Arms" by the Foo Fighters
Date: Wed, 29 Nov 95 21:34:21 GMT
This is a new song they first played at the Ogden Theatre in Denver in August.
It appeared in the MTV special "I'm OK-Eur OK". This is just a quick outline,
and if anyone can figure out the words or the solo or how to really play this
song, please tell me ([email protected]). Well, here goes:
Verse:
======
C - Bb - A - G - F - G# - C (x2)
The rain is here and you my dear are still my friend
????
Chorus:
=======
F - G - C - Am
F - G - C
I was the one who left you
Always coming back and I can never get you girl
Now I am up in arms again
Repeat Verse
Together now I don't know how it's going to end
My lonely heart falls apart with you to mend
Repeat Chorus
Play Solo over Verse
Pitiful attempt at solo:
1:-------------------------------------------------------------------------
2:---------------------------------------b8b-------------------------------
3:-b9b-7-5-7-b9b-7-5---5//9-9-9-b9b-9--9--9--9-7-5-7-9-7-5-5---5-5-9//////-
4:-------------------7---------------------------------------7-------------
5:-------------------------------------------------------------------------
6:-------------------------------------------------------------------------
Play Chorus (x2)
-- Michael Slusarz ([email protected])
-- University of Colorado, Boulder
Date: Thu, 8 Feb 96 16:16:55 +0100
From: Trey
Subject: TAB: UP IN ARMS BY: FOO FIGHTERS
------------
FOO FIGHTERS
------------
UP IN ARMS (live in london) Transcribed by: Dennis Friis
([email protected])
Chords used:
C: X32010 A: X0222X F5: 133XXX G#5: 466XXX G#: 46654X
The chord progressions goes like:
VERSE:
/C/A/F5/G#5/F5/G#5/C/ (PLAYED TWICE)
CHORUS:
/F/G#/C/A/
/F/G#/C/C/
FORM:
(drumroll)-verse-chorus-verse-chorus-SOLO(verse)-chorus-chorus
SOLO:
PB: pre-bend string, then fret and release B: bend half way up
bends with occationel pick-harmonic
e:|---------------------------------------|
h:|---------------------------------------|
g:|--PB7---5---5-7-5---5---5-B7 B7 B7 B7--|
d:|------7---7-------7---7----------------|
a:|---------------------------------------|
e:|---------------------------------------|
Hold bend
e:|---------------------------------------|
h:|-----7---------------------------------|
g:|--B7----7-5---5-7-5---5-----5-5-5-5----|
d:|------------7-------7---7-5-5-5-5-5----|
a:|---------------------------------------|
e:|---------------------------------------|
The strums and the solo feel must be taken off by ear.. So enjoy
PS. Please!!! can anyone mail me the lyrics. [email protected]




Ваше мнение



Капча