-------------------------------------------------------------------------------
Up In Arms - Foo Fighters
-------------------------------------------------------------------------------

Tabbed by: MAZZA
Email: [email protected]

Tuning: EADGBE

INTRO PT1 (X2)
C C/B Am G
E|----------------------------------------------------------------------------|
B|---------1------------1------------1------------0---------------------------|
G|---------0------------0------------2------------0---------------------------|
D|-----2---2--------0---0--------2---2------------0---------------------------|
A|--3------3-----2------------0------0--------0-------------------------------|
E|-----------------------------------------3----------------------------------|

F Ab C C
e|---------------------------------------------------------------------------|
B|----------1-------------4-----------1------------1-------------------------|
G|----------2-------------5-----------0------------0-------------------------|
D|----------3-------------6-------2---2--------2---2-------------------------|
A|-----3--------------6--------3------3-----3------3-------------------------|
E|--1-------------4----------------------------------------------------------|

INTRO (PT2)
F Ab5 C Am
e|---------------------------------------------------------------------------|
B|-----------------------------------------------1----------------1----------|
G|-------------------------------------------0---0------------2---2----------|
D|--3-3-3-3-3-3-3-3--6-6-6-6-6-6-6-6------2------2---------2------2----------|
A|--3-3-3-3-3-3-3-3--6-6-6-6-6-6-6-6---3---------3------0---------0----------|
E|--1-1-1-1-1-1-1-1--4-4-4-4-4-4-4-4-----------------------------------------|

F Ab5 C
e|----------------------------------------0---------------------------------|
B|----------------------------------------1---------------------------------|
G|----------------------------------------0---------------------------------|
D|--3-3-3-3-3-3-3-3--6-6-6-6-6-6-6-6------2---------------------------------|
A|--3-3-3-3-3-3-3-3--6-6-6-6-6-6-6-6------3---------------------------------|
E|--1-1-1-1-1-1-1-1--4-4-4-4-4-4-4-4----------------------------------------|

VERSE (X2)
C G/B A5 G5 F5 Ab5 C5
e|---------------------------------------------------------------------------|
B|---------------------------------------------------------------------------|
G|---------------------------------------------------------------------------|
D|--5-5---5-5---2-2-----------------------5-5---5-5-5------------------------|
A|--3-3---2-2---0-0----5-5---3-3---6-6----3-3---3-3-3------------------------|
E|---------------------3-3---1-1---4-4---------------------------------------|

CHORUS (EACH CHORD REPEATED 8 TIMES)
F5 Ab5 C5 A5 F5 Ab5 C5 C5
e|---------------------------------------------------------------------------|
B|---------------------------------------------------------------------------|
G|----------------5----2----------------5----5-------------------------------|
D|--3------6------5----2-----3----6-----5----5-------------------------------|
A|--3------6------3----0-----3----6-----3----3-------------------------------|
E|--1------4-----------------1----4------------------------------------------|

REPEAT VERSE X2 AND CHORUS

SOLO
e|---------------------------------------------------------------------------|
B|---------------------------------------------------------------------------|
G|--7b(9)--------5---------5-----5h7--5------5-----------7b(9)---------------|
D|-----------7---------7-----------------7------7---5------------------------|
A|---------------------------------------------------------------------------|
E|---------------------------------------------------------------------------|

e|---------------------------------------------------------------------------|
B|--5-----5-----5-----------------8------------------------------------------|
G|--7b(9)-7b(9)-7b(9)-----7b(9)--------7b(9)--5-------5----5h7---5-----------|
D|------------------------------------------------7--------------------------|
A|---------------------------------------------------------------------------|
E|---------------------------------------------------------------------------|

SONG ORDER
----------
INTRO (P1) X2
INTRO (P2)
VERSE X2
CHORUS
VERSE X2
CHORUS
SOLO
CHORUS X2

SOUNDS 100% ACCURATE TO ME. ANY PROBLEMS, COMMENTS E-MAIL ME!
MAZ




Ваше мнение



Капча