times like these
hey people, this is from the new foos album, one by one... i really like this track
CHORDS USED IN THE SONG
D MAJOR D7 C MAJOR A MINOR E MINOR E MINOR7/B
e------2--------2---------5--------0---------0----------0----------3--------------
b------3--------1---------7--------1---------1----------0----------3--------------
g------2--------2----OR---5--------0---------2----------0----------0------------
D------0--------0---------7--------2---------2----------2----------2-----------
A-------------------------5--------3---------0----------2----------2----------
E-------------------------------------------------------0--------------------
intro- play rythms on this chord. its a D7, and i think this is the correct voicing (or at
least close to it)
e------5--------------
b------7--------------
g------5--------------
D------0--------------
A---------------------
E---------------------
lead guitar- this riff is repeated over and over again with the chords changing from D
to C to B in the background. the chords are all power chords... and yes it is wierd timing
e--------------------------
b--------------------------
g-------------------12--11-
D---0--12--10--------------
A--------------12----------
E--------------------------
VERSE
the verse is just chords, you can hear the timing on the cd
D major, A minor, C major, E minor, D7
CHORUS
same as the verse, the chorus is just chords.
C major, E minor, D major
C major, E minor7/B, D major

hope you can figure out the song with this, its just these patterns above in different
orders
cheers,
alistair
[email protected]




Ваше мнение



Капча