Band: Foo Fighters
Album: One by One
Song: Times Like These
Tuning: Standard (EADGBe)
Tabbed by: Josh
E-mail: [email protected]
I wrote this tab because there were many good tabs out there that got extremely
close, they just left out little things. This tab is my first and is 99.999% correct.
Chords:
D - xx0232
Am7 - x02213
C - x32013
Em(3) - 022003
The arrows mean to strum the chord. (--->--->---)
The asterick is meant to denote the transitions from chord to chord.
The extra line under some of the tabs is to show how to strum it,
d = downstroke and u = upstroke.
The tilde (~) means to hit the strings and let them ring.
In the intro, the bottom two strings aren't really needed, I just felt it sounded fuller
and closer to the song. Fret the F# on the bottom E string with your thumb.

Intro, Part 1 Intro, Part 2
Repeat 2 times
e ||----0-2-2-0-2--0-2--0-2--0-2-2----||----0-2-2-0-2--0-2--0-2--0-2-2-0----|
B ||----3-3-3-3-3--3-3--3-3--3-3-3----||----3-3-3-3-3--3-3--3-3--3-3-3-3----|
G ||o---0-2-2-0-2--0-2--0-2--0-2-2---o||----0-2-2-0-2--0-2--0-2--0-2-2-0----|
D ||o---0-0-0-0-0--0-0--0-0--0-0-0---o||----0-0-0-0-0--0-0--0-0--0-0-0-0----|
A ||----0~~~~~~~~~~~~~~~~~~~~~~~~~----||----0~~~~~~~~~~~~~~~~~~~~~~~~~~~----|
E ||----2~~~~~~~~~~~~~~~~~~~~~~~~~----||----2~~~~~~~~~~~~~~~~~~~~~~~~~~~----|
||----d-u-d-u-d--d-u--u-d--d-u-d----||----d-u-d-u-d--d-u--u-d--d-u-d-u----|

Verse 1
D * Am7 * C Em(3)
e |----2---->----->---2-3---->----->----->----->----3-3---->---->--3---->----->--------------|
B |----3---->----->---3-1---->----->----->----->----1-1---->---->--0---->----->-----Play-----|
G |----2---->----->---x-2---->----->----->----->----2-0---->---->--0---->----->-----Intro----|
D |----0---->----->---2-2---->----->----->----->----x-2---->---->--2---->----->-----Part-----|
A |---------------------0---->----->----->----->----2-3---->---->--2---->----->-----2--------|
E |----------------------------------------------------------------0---->----->--------------|
I, I’m a one way motorway.....I’m the one that drives away, follows you back home
D * Am7 * C Em(3)
e |----2---->----->---->--2-3---->----->----->----->----3-3---->---->--->--3---->----->--------|
B |----3---->----->---->--3-1---->----->----->----->----1-1---->---->--->--0---->----->--Play--|
G |----2---->----->---->--x-2---->----->----->----->----2-0---->---->--->--0---->----->--Intro-|
D |----0---->----->---->--2-2---->----->----->----->----x-2---->---->--->--2---->----->--Part--|
A |-------------------->----0---->----->----->----->----2-3---->---->--->--2---->----->--1-----|
E |------------------------------------------------------------------------0---->----->--------|
I, I’m a streetlight shining.....I’m a white light blinding bright, burning off and on

Chorus
Repeat 4 times
C Em(3) D
e ||------3---->----->----->---3---->---->----2-2-0-2----||----------------------------------|
B ||------1---->----->----->---0---->---->----3-3-3-3----||-------Play----------------Play---|
G ||o-----0---->----->----->---0---->---->----2-2-0-2---o||-------Intro---------------Intro--|
D ||o-----2---->----->----->---2---->---->----0-0-0-0---o||-------Part-1-----then-----Part-2-|
A ||------3---->----->----->---2---->---->---------------||-------Once----------------Once---|
E ||---------------------------0---->---->---------------||----------------------------------|
||------------------------------------------d-d-u-u----||----------------------------------|

1 - It’s times like these you learn to live again
2 - It’s times like these you give and give again
3 - It’s times like these you learn to love again
4 - It’s times like these.....time and time again

Verse 2
D * Am7 * C Em(3)
e |----2---->----->---2-3---->----->----->----->----3-3---->---3---->----->------------------|
B |----3---->----->---3-1---->----->----->----->----1-1---->---0---->----->-----Play---------|
G |----2---->----->---x-2---->----->----->----->----2-0---->---0---->----->-----Intro--------|
D |----0---->----->---2-2---->----->----->----->----x-2---->---2---->----->-----Part---------|
A |---------------------0---->----->----->----->----2-3---->---2---->----->-----2------------|
E |------------------------------------------------------------0---->----->------------------|
I, I’m a new day rising........I’m a brand new sky that hangs stars upon tonight
D * Am7 * C Em(3)
e |----2---->---->---2-3---->----->----->----->----3-3---->--->---3---->--->-----------------|
B |----3---->---->---3-1---->----->----->----->----1-1---->--->---0---->--->---Play----------|
G |----2---->---->---x-2---->----->----->----->----2-0---->--->---0---->--->---Intro---------|
D |----0---->---->---2-2---->----->----->----->----x-2---->--->---2---->--->---Part----------|
A |--------------------0---->----->----->----->----2-3---->--->---2---->--->---1-------------|
E |---------------------------------------------------------------0---->--->-----------------|
I, I’m a little divided..........Do I stay or run away and leave it all behind
Chorus
Repeat 3 times
C Em(3) D
e ||------3---->----->----->---3---->---->----2-2-0-2----||------3---->------>----3---->----->-|
B ||------1---->----->----->---0---->---->----3-3-3-3----||------1---->------>----0---->----->-|
G ||o-----0---->----->----->---0---->---->----2-2-0-2---o||------0---->------>----0---->----->-|
D ||o-----2---->----->----->---2---->---->----0-0-0-0---o||------2---->------>----2---->----->-|
A ||------3---->----->----->---2---->---->---------------||------3---->------>----2---->----->-|
E ||---------------------------0---->---->---------------||-----------------------0---->----->-|
||------------------------------------------d-d-u-u----||------------------------------------|

1 - It’s times like these you learn to live again
2 - It’s times like these you give and give again
3 - It’s times like these you learn to love again
It’s times like these time and time ag..
Bridge
D C Em(3) D C En(3)
e |----2---------3---------3---------2--------------3---------3------>----->---------------|
B |----3---------1---------0---------3--------------1---------0------>----->---------Play--|
G |----2---------0---------0---------2--------------0---------0------>----->---------Intro-|
D |----0---------2---------2---------0--------------2---------2------>----->---------Part--|
A |--------------3---------2------------------------3---------2------>----->---------1-----|
E |------------------------0----------------------------------0------>----->---------------|
..ain
Oohhhhh Oohhhhh Oohhhhh Oooohhhhhhhh Oohh Ooohhhhhhhhhhhhhhhhhhhh
Piano notes for Bridge - D C D G Gb
Tabbed for guitar (Start playing on second C chord)
e |------------------------------------------------------------------------------------------|
B |------------------------------------------------------------------------------------------|
G |---------------12--11---------------12--11---------------12--11---------------12--11------|
D |----12--10--12-----------12--10--12-----------12--10--12-----------12--10--12-------------|
A |------------------------------------------------------------------------------------------|
E |------------------------------------------------------------------------------------------|

Chorus
Repeat 8 times
C Em(3) D
e ||------3---->----->----->---3---->---->----2-2-0-2----||
B ||------1---->----->----->---0---->---->----3-3-3-3----||
G ||o-----0---->----->----->---0---->---->----2-2-0-2---o||
D ||o-----2---->----->----->---2---->---->----0-0-0-0---o||
A ||------3---->----->----->---2---->---->---------------||
E ||---------------------------0---->---->---------------||
||------------------------------------------d-d-u-u----||

1 - It’s times like these you learn to live again
2 - It’s times like these you give and give again
3 - It’s times like these you learn to love again
4 - It’s times like these.....time and time again
C Em(3) D D C
e ||------3--------------------3--------------2-2-0-2----||---2--0--0----|
B ||------1--------------------0--------------3-3-3-3----||---3--0--1----|
G ||o-----0--------------------0--------------2-2-0-2---o||---2--0--0----|
D ||o-----2--------------------2--------------0-0-0-0---o||---0--2--2----|
A ||------3--------------------2-------------------------||--------------|
E ||---------------------------0-------------------------||--------------|
||------------------------------------------d-d-u-u----||--------------|

1 - It’s times like these you learn to live again
2 - It’s times like these you give and give again
3 - It’s times like these you learn to love again
4 - It’s times like these.....time and time again




Ваше мнение



Капча