---------------------------------------------------------------------
Overdrive - Foo Fighters
---------------------------------------------------------------------
Tabbed by: Adam Pollard
Email: [email protected]
Tuning: Standard
Intro
Guitar 1
e|----------------------------------------------------------------|
B|----------------------------------------------------------------|
G|---7------------------------------------------------------------|
D|---7------------------------------------7-----------------------|
A|---5------------------------------------7-----------------------|
E|----------------------------------------5-----------------------|
Guitar 2
e|----------------------------------------------------------------|
B|----------------------------------------------------------------|
G|---11---9---7---------------7-------7---9-----------------------|
D|---x----x---x---9---7---9---x---9---x---x-----------------------|
A|---9----7---5---x---x---x---5---x---5---7-----------------------|
E|----------------7---5---7-------7-------------------------------|
Guitar 1
e|----------------------------------------------------------------|
B|----------------------------------------------------------------|
G|---7------------------------------------------------------------|
D|---7------------------------------------7-----------------------|
A|---5------------------------------------7-----------------------|
E|----------------------------------------5-----------------------|
Guitar 2
e|----------------------------------------------------------------|
B|----------------------------------------------------------------|
G|---11---9---7---------------7-----------------------------------|
D|---x----x---x---9---7---9---x---9------7------------------------|
A|---9----7---5---x---x---x---5---x------x------------------------|
E|----------------7---5---7-------7------5------------------------|
Guitar 1
e|----------------------------------------------------------------|
B|----------------------------------------------------------------|
G|---7------------------------------------------------------------|
D|---7------------------------------------7-----------------------|
A|---5------------------------------------7-----------------------|
E|----------------------------------------5-----------------------|
Guitar 2
e|----------------------------------------------------------------|
B|----------------------------------------------------------------|
G|---11---9---7---------------7-------7---9-------------------11--|
D|---x----x---x---9---7---9---x---9---x---x-------------------x---|
A|---9----7---5---x---x---x---5---x---5---7-------------------9---|
E|----------------7---5---7-------7-------------------------------|
e|----------------------------------------------------------------|
B|----------------------------------------------------------------|
G|------------------------7---------------------------------------|
D|---5--------------------7----------------------------------------|
A|---5--------------------5----------------------------------------|
E|---3-------------------------------------------------------------|
e|-----------------------------------------------------------------|
B|-----------------------------------------------------------------|
G|---7------9------11----------------------------------------------|
D|---x------x------x------7------4---------------------------------|
A|---5------7------9------x------x---------------------------------|
E|------------------------5------2---------------------------------|
=====================================================================
Verse
Guitar 1
e|------------------------------------------------------------------|
B|------------------------------------------------------------------|
G|---7--------------------------------------------------------------|
D|---7-------------------7------------------------------------------|
A|---5-------------------7------------------------------------------|
E|-----------------------5------------------------------------------|
Guitar 2
e|---2-------------------0------3-----------0-----------3-----------|
B|---3-------------------1----------1-----------1-----------1-------|
G|---2-------------------2--------------2-----------2-----------2---|
D|---0-------------------2------------------------------------------|
A|-----------------------0------------------------------------------|
E|------------------------------------------------------------------|
Guitar 1
e|------------------------------------------------------------------|
B|------------------------------------------------------------------|
G|---7--------------------------------------------------------------|
D|---7-------------------7------------------------------------------|
A|---5-------------------7------------------------------------------|
E|-----------------------5------------------------------------------|
Guitar 2
e|---2-------------------0------3-----------0-----------3-----------|
B|---3-------------------1----------1-----------1-----------1-------|
G|---2-------------------2--------------2-----------2-----------2---|
D|---0-------------------2------------------------------------------|
A|-----------------------0------------------------------------------|
E|------------------------------------------------------------------|
Guitar 1
e|------------------------------------------------------------------|
B|------------------------------------------------------------------|
G|-----------------------7------------------------------------------|
D|---5-------------------7------------------------------------------|
A|---5-------------------5------------------------------------------|
E|---3--------------------------------------------------------------|
Guitar 2
e|---3-------------------3------------0---2-------------------------|
B|---3-------------------2--------------------3---------------------|
G|---0-------------------3------------------------2-----------------|
D|---0-------------------0------------------------------------------|
A|---2--------------------------------------------------------------|
E|---3--------------------------------------------------------------|
Guitar 1
e|------------------------------------------------------------------|
B|------------------------------------------------------------------|
G|-----------------------7------------------------------------------|
D|---5-------------------7------------------------------------------|
A|---5-------------------5------------------------------------------|
E|---3--------------------------------------------------------------|
Guitar 2
e|---3-------------------3------------0---2-------------------------|
B|---3-------------------2--------------------3---------------------|
G|---0-------------------3------------------------2-----------------|
D|---0-------------------0------------------------------------------|
A|---2--------------------------------------------------------------|
E|---3--------------------------------------------------------------|
Guitar 1
e|------------------------------------------------------------------|
B|------------------------------------------------------------------|
G|------------------------------------------------------------------|
D|---7-------------------5------------------------------------------|
A|---7-------------------5------------------------------------------|
E|---5-------------------3------------------------------------------|
Guitar 2
e|---0-------------------3------------------------------------------|
B|---1-------------------3------------------------------------------|
G|---0-------------------0------------------------------------------|
D|---2-------------------0------------------------------------------|
A|---3-------------------2------------------------------------------|
E|-----------------------3------------------------------------------|
Guitar 1
e|--------------|
B|--------------|
G|---7----------|
D|---7----------|
A|---5----------|
E|--------------|
Guitar 2
e|---3----------|
B|---2----------|
G|---3----------|
D|---0----------|
A|--------------|
E|--------------|

Chorus
Guitar 1 x3
e|----------------------------------------------------------------|
B|----------------------------------------------------------------|
G|---7------------------------------------------------------------|
D|---7------------------------------------7-----------------------|
A|---5------------------------------------7-----------------------|
E|----------------------------------------5-----------------------|
Guitar2 x3
e|----------------------------------------------------------------|
B|----------------------------------------------------------------|
G|---7------------------------------------9-----------------------|
D|---x------------------------------------x-----------------------|
A|---5------------------------------------7-----------------------|
E|----------------------------------------------------------------|
Guitar 1
e|----------------------------------------------------------------|
B|----------------------------------------------------------------|
G|----------------------------------------------------------------|
D|---5------------------------------------------------------------|
A|---5------------------------------------------------------------|
E|---3------------------------------------------------------------|
Guitar2
e|----------------------------------------------------------------|
B|----------------------------------------------------------------|
G|---7------9------11-----12--------------------------------------|
D|---x------x------x-------x--------------------------------------|
A|---5------7------9------10--------------------------------------|
E|----------------------------------------------------------------|
Guitar 1
e|----------------------------------------------------------------|
B|----------------------------------------------------------------|
G|---7------------------------------------------------------------|
D|---7------------------------------------7-----------------------|
A|---5------------------------------------7-----------------------|
E|----------------------------------------5-----------------------|
Guitar 2
e|----------------------------------------------------------------|
B|----------------------------------------------------------------|
G|---11---9---7---------------7-------7---9-----------------------|
D|---x----x---x---9---7---9---x---9---x---x-----------------------|
A|---9----7---5---x---x---x---5---x---5---7-----------------------|
E|----------------7---5---7-------7-------------------------------|
Guitar 1
e|----------------------------------------------------------------|
B|----------------------------------------------------------------|
G|---7------------------------------------------------------------|
D|---7------------------------------------7-----------------------|
A|---5------------------------------------7-----------------------|
E|----------------------------------------5-----------------------|
Guitar 2
e|----------------------------------------------------------------|
B|----------------------------------------------------------------|
G|---11---9---7---------------7-----------------------------------|
D|---x----x---x---9---7---9---x---9------7------------------------|
A|---9----7---5---x---x---x---5---x------x------------------------|
E|----------------7---5---7-------7------5------------------------|

Solo
I know this is not accurate but I gave it my best shot.
Guitar 1 x4
e|---------------------------------------------------------------|
B|---------8--------8--------8--------7--------7--------7--------|
G|------7--------7--------7--------7--------7--------7-----------|
D|---5--------5--------5--------7--------7--------7--------------|
A|---------------------------------------------------------------|
E|---------------------------------------------------------------|
Guitar 2 x4
e|---------8--------8--------8--7--------------------------------|
B|---------------------------------------------------------------|
G|---------------------------------------------------------------|
D|---------------------------------------------------------------|
A|---------------------------------------------------------------|
E|---------------------------------------------------------------|
e|---10---8-------10---7-------10------7--------------10---------|
B|------------8------------8-----------10b1/2---8-8-7------10----|
G|----------------------------------------------------------7----|
D|---------------------------------------------------------------|
A|---------------------------------------------------------------|
E|---------------------------------------------------------------|
Outro
e|----------------------------------------------------------------|
B|----------------------------------------------------------------|
G|---7------9------11-----12--------------------------------------|x2
D|---x------x------x-------x--------------------------------------|
A|---5------7------9------10--------------------------------------|
E|----------------------------------------------------------------|
e|----------------------------------------------------------------|
B|----------------------------------------------------------------|
G|---14-----12------11------9------14------16------17------16-----|
D|---x-------x-------x------x-------x-------x-------x-------x-----|
A|---12-----10-------9------7------12------14------15------14-----|
E|----------------------------------------------------------------|
Guitar 1
e|--------------|
B|--------------|
G|---7----------|
D|---7----------|
A|---5----------|
E|--------------|
Guitar 2
e|---3----------|
B|---2----------|
G|---3----------|
D|---0----------|
A|--------------|
E|--------------|
=====================================================================




Ваше мнение



Капча