================================================
Foo Fighters --- The One
================================================
Tabbed by MojoManiac
[email protected]
Tab Symbols
------------------------
1/4
)
/ = Quarter bend
/
1/4 1/4
Intro ) )
-------------------------------------------/---/----|
------------------------------------------/---/-----|
-----------------------------------------6---7------| x3
6--7-7-7-7-7-6--7-7-7-7-7-6--7-7-7-7-7---x---x------|
6--7-7-7-7-7-6--7-7-7-7-7-6--7-7-7-7-7---4---5------|
4--5-5-5-5-5-4--5-5-5-5-5-4--5-5-5-5-5--------------|
1/4 1/4
) )
-------------------------------------------/---/----|
------------------------------------------/---/-----|
-----------------------------------------7---6------|
6--7-7-7-7-7-6--7-7-7-7-7-6--7-7-7-7-7---x---x------|
6--7-7-7-7-7-6--7-7-7-7-7-6--7-7-7-7-7---5---4------|
4--5-5-5-5-5-4--5-5-5-5-5-4--5-5-5-5-5--------------|
Verse
P.M---------------------------------------------------------------------------------------------|
------------------------------------------------------------------------------------------------|
------------------------------------------------------------------------------------------------|
------------------------------------------------------------------------7--7--7--7--7--7--7--7--|
9--9--9--9--7--7--7--7--5--5--5--5--4--4--4--4--3--3--3--3--2--2--2--2--7--7--7--7--7--7--7--7--|
9--9--9--9--7--7--7--7--5--5--5--5--4--4--4--4--3--3--3--3--2--2--2--2--5--5--5--5--5--5--5--5--|
7--7--7--7--5--5--5--5--3--3--3--3--2--2--2--2--1--1--1--1--0--0--0--0--------------------------|
Play verse four times. Each chord stroke goes to the beat
Chorus
------------------------------------------------------------------------------------------|
------------------------------------------------------------------------------------------|
-----------------8-8-8-8-8-8-8-8--6-6-6-6-6-6-6-6-----------------------------------------|
6-6-6-6-6-6-6-6--8-8-8-8-8-8-8-8--6-6-6-6-6-6-6-6---4-4-4-4-4-4-4-4---5-5-5-5-5-5-5-5-----|
6-6-6-6-6-6-6-6--6-6-6-6-6-6-6-6--4-4-4-4-4-4-4-4---4-4-4-4-4-4-4-4---5-5-5-5-5-5-5-5-----|
4-4-4-4-4-4-4-4-------------------------------------2-2-2-2-2-2-2-2---3-3-3-3-3-3-3-3-----|
1/4 1/4
Chorus to verse transition ) )
-------------------------------------------/---/----|
------------------------------------------/---/-----|
-----------------------------------------6---7------|
6--7-7-7-7-7-6--7-7-7-7-7-6--7-7-7-7-7---x---x------|
6--7-7-7-7-7-6--7-7-7-7-7-6--7-7-7-7-7---4---5------|
4--5-5-5-5-5-4--5-5-5-5-5-4--5-5-5-5-5--------------|
1/4 1/4
) )
-------------------------------------------/---/----|
------------------------------------------/---/-----|
-----------------------------------------7---6------|
6--7-7-7-7-7-6--7-7-7-7-7-6--7-7-7-7-7---x---x------|
6--7-7-7-7-7-6--7-7-7-7-7-6--7-7-7-7-7---5---4------|
4--5-5-5-5-5-4--5-5-5-5-5-4--5-5-5-5-5--------------|
K, I didn't figure out the interlude, but it starts like this.
---------------------------------------------------------------|
---------------------------------------------------------------|
---------------------------------------------------------------|
7-7-7-7-7-7-7-7-9-9-9-9-9-9-9-9--------------------------------|
7-7-7-7-7-7-7-7-9-9-9-9-9-9-9-9--------------------------------|
5-5-5-5-5-5-5-5-7-7-7-7-7-7-7-7--------------------------------|


Ваше мнение



Капча