Im not sure about the intro/verse thing, i think im missing
something but the solo and chrous are right
Intro/verse
e|-------------------------------------------------
b|-------------------------------------------------
g|---5555-88888----1111-55555----5555-88888-333333-
d|77-7777-88888-33-3333-55555-77-7777-88888-555555-
a|77-7777-66666-33-3333-33333-77-7777-66666-555555-
E|55-5555-------11-1111-------55-5555-------333333-
chorus
e|--------------
b|--------------
g|111111-000000-
d|333333-222222-
a|333333-222222-
E|111111-000000-
solo
e|---------------------------------------------------------------------
b|---------------------------------------------------------------------
g|14 12-------------------------------------------14-14-14-14-14-14-12-
d|------13 12 10-12-10-------------------------------------------------
a|---------------------12-10-12-12-12-12-12-12-10----------------------
E|---------------------------------------------------------------------
e|-------------------------------------------------
b|13-13-13-13-13-13-12-----------------------------
g|---------------------14-12>>>12-12-12>>14--------
d|-------------------------------------------------
a|-------------------------------------------------
E|-------------------------------------------------
Repeat
e|--13--13--13--13---12--12--12--12---13--13--13--13---12--12--12--12-
b|13--13--13--13---12--12--12--12---13--13--13--13---12--12--12--12---
g|--------------------------------------------------------------------
d|--------------------------------------------------------------------
a|--------------------------------------------------------------------
E|--------------------------------------------------------------------
e|--13--13--13--13-15-15-15-15-14-14-14-14-14-
b|13--13--13--13------------------------------
g|--------------------------------------------
d|--------------------------------------------
a|--------------------------------------------
E|--------------------------------------------




Ваше мнение



Капча