Foo Fighters - My Poor Brian
Tabbed By: sir p
EMail: [email protected]
More Foo Fighters tabs at www.TabbersTemple.com
The intro was too weird to tab out so I didn't bother to do it. I got the
rest tabbed out though. If you have any questions, comments, corrections,
or additions feel free to e-mail them to me.
[Verse]
=======
Guitar 1:
E|-------------------------------------------------|
B|-------------------------------------------------|
G|-6---6---6---6---6---6---6---6---6---6---6---6---|
D|-------------------------------------------------|
A|-------------------------------------------------|
E|-------------------------------------------------|
| |
|Guitar 2: |
E|-4-4-4-4-4-4-4-6-6-6-6-6-6-6-6-6-6-7-7-7-7-6-6-4-|
B|-6-6-6-6-6-6-6-7-7-7-7-7-7-7-7-7-7-7-7-7-7-7-7-6-|
G|-------------------------------------------------|
D|-------------------------------------------------|
A|-------------------------------------------------|
E|-------------------------------------------------|
[Pre-Chorus]
============
E|-------------------------------------------------|
B|-------------------------------------------------|
G|-6--6--6--6-----4--4-----4--4--4--4-----9--8--7--|
D|-6--6--6--6-----4--4-----4--4--4--4-----9--8--7--|
A|-4--4--4--4-----2--2-----2--2--2--2-----7--6--5--|
E|-------------------------------------------------|
E|-------------------------------------------------|
B|-------------------------------------------------|
G|-6--6--6--6-----4--4-----4--4--4--4--------------|
D|-6--6--6--6-----4--4-----4--4--4--4-----5--4--2--|
A|-4--4--4--4-----2--2-----2--2--2--2-----5--4--2--|
E|----------------------------------------3--2--0--|
[Chorus]
========
E|-------------------------------------------------|
B|-------------------------------------------------|
G|-------------------------4--4--4--4--4--4--4--4--|
D|-6--6--6--6--6--6--6--6--4--4--4--4--4--4--4--4--|
A|-6--6--6--6--6--6--6--6--2--2--2--2--2--2--2--2--|
E|-4--4--4--4--4--4--4--4--------------------------|
E|-------------------------------------------------|
B|---------------------------------------------(5)-|
G|-6--6--4--6--6--4--6-----6--6--4--6--6--4--4--4--|
D|-6--6--4--6--6--4--6-----6--6--4--6--6--4--4--2--|
A|-4--4--2--4--4--2--4-----4--4--2--4--4--2--2-----|
E|-------------------------------------------------|
| |
|Guitar 2: |
E|-------------------------------------------------|
B|-------------------------------------------------|
G|-------4--6-----4--6-----------4--6--------------|
D|-------------------------------------------------|
A|-------------------------------------------------|
E|-------------------------------------------------|
[Interlude]
===========
E|------|------------------------------------------|
B|------|------------------------------------------|
G|------|/10-------10///11-------(11)8---------8//|
D|------|------------------------------------------|
A|------|------------------------------------------|
E|------|------------------------------------------|
| |
|Guitar 2: |
E|------|------------------------------------------|
B|------|------------------------------------------|
G|-4////|/13-------13///15-------(15)11-------11//|
D|------|------------------------------------------|
A|------|------------------------------------------|
E|------|------------------------------------------|www.TabbersTemple.com




Ваше мнение



Капча