My Hero is one of the best foo fighters songs on the colour and the shapeand
i'm sure this is right. None of the other versions of this song are right.
Intro C#5 |x46xxx| E5 |02xxxx|
Chords played in the backround.
E5 C#5 E5 C#5
e|-0-----0--0---0--------0----0----0--0-----0--------------------------------|
B|-4/-5--4--0--0--0-0-0--4/-5-4-0---0---0-0-0--------------------------------|
G|---------------------------------------------------------------------------|
D|---------------------------------------------------------------------------|
A|---------------------------------------------------------------------------|
E|---------------------------------------------------------------------------|
Other part of intro
E5 C#5 E5 C#5
e|-----0-0---------------------------0-0-------------------------------------|
B|-----0-0------7-4-4-4-7-4-4-4------0-0-4-4-7-4-4-4-7-5-5-5-7-4-4-4-7-5-5-5-|
G|----------4-4-4-4-4-4-4-4-4-4----------4-4-4-4-4-4-4-4-4-4-4-4-4-4-4-4-4-4-|
D|---------------------------------------------------------------------------|
A|-2-2---------------------------2-2-----------------------------------------|
E|-0-0---------------------------0-0-----------------------------------------|
Cool riff. (people say this is played on bass but it's also played on guitar)

e|---------------------------------------------------------------------------|
B|---------------------------------------------------------------------------|
G|---------------------------------------------------------------------------|
D|-----------2---------------------------------------------------------------|
A|-----4-2---0---------------------------------------------------------------|
E|-2-2-----4-----------------------------------------------------------------|
Verse
E5 C#5
e|---------------------------------------------------------------------------|
B|-/5-5-5-5-5-5-4-4-7-4-4-4-7-4-4-4------------------------------------------|
G|---------------------------------------------------------------------------|
D|---------------------------------------------------------------------------|
A|---------------------------------------------------------------------------|
E|---------------------------------------------------------------------------|
Chorus (with lyrics)
e|---------------------------------------------------------------------------|
B|----------4-4-4-4-5-5-5-5-7-7-7-7-----------4-4-4-4-5-5-5-5----------------|
G|----------x-x-x-x-x-x-x-x-x-x-x-x-----------x-x-x-x-x-x-x-x-6-6-6-6--------|
D|-2-2-2-2--1-1-1-1-2-2-2-2-4-4-4-4---2-2-2-2-1-1-1-1-2-2-2-2-x-x-x-x--------|
A|-0-0-0-0----------------------------0-0-0-0-----------------4-4-4-4--------|
E|---------------------------------------------------------------------------|
bit without lyrics

Guitar 1 (Nate Mendel)
e|---------------------------------------------------------------------------|
B|---------------------------------------------------------------------------|
G|---------4-4-4-4-5-5-5-5-7-7-7-7---------7-7-7-7-9-9-9-9-4-4-4-4-----------|
D|---------x-x-x-x-x-x-x-x-x-x-x-x---------x-x-x-x-x-x-x-x-x-x-x-x-----------|
A|-2-2-2-2-1-1-1-1-2-2-2-2-4-4-4-4-2-2-2-2-4-4-4-4-6-6-6-6-1-1-1-1-----------|
E|-0-0-0-0-------------------------0-0-0-0-----------------------------------|

Guitar 2 (Dave Grohl)
e|---------------------------------------------------------------------------|
B|----------4-4-4-4-5-5-5-5-7-7-7-7-----------4-4-4-4-5-5-5-5----------------|
G|----------x-x-x-x-x-x-x-x-x-x-x-x-----------x-x-x-x-x-x-x-x-4-4-4-4--------|
D|-2-2-2-2--1-1-1-1-2-2-2-2-4-4-4-4---2-2-2-2-1-1-1-1-2-2-2-2-x-x-x-x--------|
A|-0-0-0-0----------------------------0-0-0-0-----------------2-2-2-2--------|
E|---------------------------------------------------------------------------|
Interlude ( bend for full)
E5 C#5
e|-0----0-0--0--------0----0--------0----------------------------------------|
B|-4/-5-4-0-0--0-0-0--4/-5-4-0-------0-0-0-----------------------------------|
G|---------------------------4b-(4)------------------------------------------|
D|---------------------------------------------------------------------------|
A|---------------------------------------------------------------------------|
E|---------------------------------------------------------------------------|
Then it goes into this
e|-0----0---0----------------------------------------------------------------|
B|-4h5--5/7-7/9--9--9-9-9-9-9--9-9-9-9-9-9--9--9-9-9-9-9--9-9-9-9-9-9--------|
G|---------------9--9-9-9-9-9--8-8-8-8-8-8--9--9-9-9-9-9--8-8-8-8-8-8--------|
D|---------------------------------------------------------------------------|
A|---------------------------------------------------------------------------|
E|---------------------------------------------------------------------------|
Other chorus part ( Kudos my hero, leavin'all the best)
e|---------------------------------------------------------------------------|
B|-4-4-4-4/--7-7-7-7-7-7-7-7-------------------------------------------------|
G|-x-x-x-x---x-x-x-x-x-x-x-x-------------------------------------------------|
D|-1-1-1-1/--4-4-4-4-4-4-4-4-------------------------------------------------|
A|---------------------------------------------------------------------------|
E|---------------------------------------------------------------------------|
I can't remember the order of this so try to figure it out yourself. Tabbed by
Sam smith. Thanx I am sure this is 100% right i've played it through and it's
perfect.
| / slide up
| slide down
| h hammer-on
| p pull-off
| ~ vibrato
| + harmonic
| x Mute note
===============================================================================




Ваше мнение



Капча