-------------------------------------------------------------------------------
MONKEY WRENCH - FOO FIGHTERS
-------------------------------------------------------------------------------

Here's my version of the intro riff bit - there's more than one finger to this bit...

By: billson

e|----------------------------------------------------------------|
B|7-7-5-5-4-4-----5-5-4-4-----4-4-5-5-5-5-5-5-5-5-5-5-5-5---------|
G|4-4-4-4-4-4-6-6-4-4-4-4-6-6-4-4-6-6-4-4-----4-4-6-6-4-4-6b7-6-4-|
D|----------------------------------------6-6---------------------|
A|----------------------------------------------------------------|
E|----------------------------------------------------------------|

e|----------------------------------------------------------------------|
B|7-7-5-5-4-4-----5-5-4-4-----4-4-5-5-5-5-5-5-5-5-5-5-5-5-------5-------|
G|4-4-4-4-4-4-6-6-4-4-4-4-6-6-4-4-6-6-4-4-----4-4-6-6-4-4-6b7-6-4-------|
D|----------------------------------------6-6---------------------------|
A|----------------------------------------------------------------------|
E|----------------------------------------------------------------------|




Ваше мнение



Капча