Low- Foo Fighters
one of the rockiest songs on the album.... sounds a bit like queens i reckon, but i guess
thats what happens when your main songwriter goes and plays in queens for a while
oh and its in drop D too
anyway
VERSE- this is actually two guitars on the album, but its not that hard to play both
at once
e--------------------------------------------------------
b--------------------------------------------------------
g-----------------13---15--------------13----11----------
D--------------------------------------------------------
A-----------------11---13--------------11----9-----------
D--5-5-5-5-5---------------4-4-4-4-4---------------------
PRE CHORUS
e--------------------------------------------------------
b--------------------------------------------------------
g--------------------------------------------------------
D---------------------------------------------------0----
A--------------------------------------------------------
D---5-5-5-5----4-4-4-4----8-8-8-8---2-2-2-2---0--2-------
CHORUS
e--------------------------------------------------------
b--------------------------------------------------------
g-------------------5--x--5--x--5-x----------------------
D-1-x--1--x--1--x---5--x--5--x--5-x----------------------
A-1-x--1--x--1--x---3--x--3--x--3-x----------------------
D-1-x--1--x--1--x----------------------------------------
BRIDGE
e-----------------------------------------------------------------
b-----------------------------------------------------------------
g-----------------------------------------------------------------
D-5-5-5-5---7-8-10-11-10-8-10-------4-4-4-4---7-8-10-11-10-8-10---
A-5-5-5-5---7-8-10-11-10-8-10-------4-4-4-4---7-8-10-11-10-8-10---
D-5-5-5-5---7-8-10-11-10-8-10-------4-4-4-4---7-8-10-11-10-8-10---
e-----------------------------------------------------------------
b-----------------------------------------------------------------
g-----------------------------------------------------------------
D--3-3-3-3---7-8-10-11-10-8-10------2-2-2-2---7-8-10-11-10-8-10---
A--3-3-3-3---7-8-10-11-10-8-10------2-2-2-2---7-8-10-11-10-8-10---
D--3-3-3-3---7-8-10-11-10-8-10------2-2-2-2---7-8-10-11-10-8-10---
play this twice then back to the chorus
well i think thats pretty much the whole song, its got a few variations
on the patterns above but im sure you can figure it out
cheers
alistair
[email protected]




Ваше мнение



Капча