low - foo fighters
tabbed by tom kelly([email protected])
NOTE: with the bridge i did both guitars, G1 is guitar one and G2 is guitar 2,
simple enough. and where you see 1111111 they are elevens, not ones, and 101010
are tens. i set the numbers close like that cos otherwise this tab would have been
twice as long. so about any confusion, i have put reminders down further.

dropped D tuning
intro/verse:
e|--------------------66666666-88888888----
B|-----------------------------------------
G|--------------------33333333-55555555----
D|-----------------------------------------
A|-----------------------------------------
D|--5555555555555555-----------------------


e|--------------------66666666-----------
B|-----------------------------77777777--
G|--------------------33333333-----------
D|-----------------------------44444444--
A|---------------------------------------
D|--4444444444444444---------------------

e|-------------------------------------------
B|-------------------------------------------
G|------------------------------------------- these 1111 are ones, not elevens.
D|-------------------------------------------
A|------------------1111...----------------4-
D|--5555...-4444...---------2222...----0-2---
he hits these notes about 4 times this amount, but its
just a waste of space. do it by ear.

chorus
e|------------------
B|------------------
G|------------------
D|-1-1-1-/-10-10-10-
A|-1-1-1-/-10-10-10-
D|-1-1-1-/-10-10-10-

bridge:
G1
e|-------------------------------------|
B|----------------------------- |
G|----------------------------- |
D|----------------------------- |
A|----------------1-3-4-3-1-3-- |
D|-55555555555555-------------- |
G2 |
e|------------------------------ |
B|-88888888888888-101010101010-- |
G|------------------------------ |
D|-55555555555555-77777777777--- |
A|------------------------------ |
D|-------------------------------------|

G1
e|--------------------------------------|
B|------------------------------ |
G|------------------------------ |
D|------------------------------ |
A|----------------1-3-4-3-1-3--- |
D|-44444444444444--------------- |
G2 |
e|------------------------------- |
B|--11111111111111111111111111--- | 11111 are elevens remember
G|------------------------------- |
D|--88888888888888888888888888--- |
A|------------------------------- |
D|--------------------------------------|

G1
e|---------------------------------------|
B|---------------------------------` |
G|--------------------------------- |
D|--------------------------------- |
A|----------------1-3-4-3-1-3------ |
D|-33333333333333------------------ |
G2 |
e|------------------------------- |
B|-10101010101010-66666666666---- | 101010 are tens
G|------------------------------- |
D|-77777777777777-33333333333---- |
A|------------------------------- |
D|---------------------------------------|

G1
e|---------------------------------------|
B|------------------------- |
G|------------------------- |
D|------------------------- |
A|---------------------4--- |
D|--22222222222222-0-2----- |
G2 |
e|------------------------------ |
B|--13131313131313-1111-101010-- | 131313 are thirteens, 1111 elevens and
G|------------------------------ | 101010 are tens.
D|--10101010101010-8888-77777--- |
A|------------------------------ |
D|---------------------------------------|

finish with:
e|----------------------
B|----------------------
G|----------------------
D|----------------------
A|----------------------
D|-55555555555555555555-




Ваше мнение



Капча