LONELY AS YOU (intro)
FOO FIGHTERS
STANDARD TUNING

INTRO
E|-------------------------------------|
B|----------------------------------7--|
G|----6------------------3--3----8--7--|
D|-8--8---6-8-9--4---4-6----x----9--9--|
A|-9--8--(7)-----6--(5)-----4----9--9--|
E|-9--6--(7)-----6--(5)-----4----7--7--|
(let ring)

E|-------------------------------7--|
B|-------------------------------7--|
G|----6------------------3--3----8--|
D|-8--8---6-8-9--4---4-6----x----9--|
A|-9--8--(7)-----6--(5)-----4----9--|
E|-9--6--(7)-----6--(5)-----4----7--|
(let ring)




Ваше мнение



Капча