Probably 5% accurate!
But at least one...
J.C.B
Intro
e||---------------------------||
B||--8-----7--8-----7--8-7----||
G||----7---7----7---7------7--||
D||------5--------5-----------||
A||---------------------------||
D||---------------------------||
Verse
(Gtr. 1 - F# Ab F#)
v v v v v
e||----------------------------------------------------||
B||-----------8-----------7-----------6-----------8-6--||
G||-----------7-----------7-----------7-----------7-7--||
D||-4-6-4-x-x-5-4-6-4-x-x-5-4-6-4-x-x-5-4-6-4-x-x-5-5--||
A||-4-6-4-x-x---4-6-4-x-x---4-6-4-x-x---4-6-4-x-x------||
D||-4-6-4-x-x---4-6-4-x-x---4-6-4-x-x---4-6-4-x-x------||
(Gtr.2 - A)
e||---------------------------||
B||--8-----7--8-----7--8-7----||
G||----7---7----7---7------7--||
D||------5--------5-----------||
A||---------------------------||
D||---------------------------||
Pre-Chorus
e||-----------------------------------||
B||-----------------------------------||
G||-----------------------------------||
D||--3-3-3-3-3-3-3-3/6-6-6-6-6-6-6-6--||
A||--3-3-3-3-3-3-3-3/6-6-6-6-6-6-6-6--||
D||--3-3-3-3-3-3-3-3/6-6-6-6-6-6-6-6--||
Chorus
e||---------------------||
B||---------------------||
G||---------------------||
D||--6---8---10--2-2-2--||
A||--6---8---10--2-2-2--||
D||--6---8---10--2-2-2--||




Ваше мнение



Капча