Artist: Foo Fighters
Song: Hey Johnny Park!
Album: The Colour and the Shape
This is the intro:
Drop D...
e||-------------------------0-----------2-2--0--0--0-|
B||-------------------------0-----------3-3--0--0--0-|
G||---------7-6--------7-6--1-----------2-2--1--1--1-|
D||--9-9-9------7-7-7-------2------5-5--0-0--2--2--2-|
A||--9-9-9------7-7-7-------2------5-5--0-0--2--2--2-|
D||--9-9-9------7-7-7-------2--2-4-5-5--0-0--2--2--2-|
e|-----------------------0-----------2-2-2-2--||
B|-----------------------0-----------3-3-3-3--||
G|--------7-6-------7-6--1-----------2-2-2-2--||
D|-9-9-9------7-7-7------2------5-5--0-0-0-0--||
A|-9-9-9------7-7-7------2------5-5--0-0-0-0--||
D|-9-9-9------7-7-7------2--2-4-5-5--0-0-0-0--||
And thats the intro... for one guitar. If you want to guitar parts, just seperate the tabs...
Questions?: [email protected]




Ваше мнение



Капча