Author: Foo Fighters
Title: Have It All
Album: One By One
Tabbed by: Rob Joyce
Email: [email protected]
Tabbed: 21/10/02
This is the third track off the Foo Fighters kickass new album,
One By One.
Hope u guys like!
Standard tuning.
> (or b)= Bend up (eg 6>7 means bend from fret 6 to fret 7)
p= Pull off (eg 7p0 means pull off and play the string loose)
= Slide Down (eg 12 means slide down from the 12th fret)
_____________________________________________________________________________
Intro
(I use a wah-wah in the down position)
(By the way the '10' in the intro is fret 10, not fret 1 then 0!)
e|-----------------------------------------
B|-----------------------------------------
G|-----------------------------------------
D|---10---10---10---10---10---10---10---10-
A|-9910-9910-9910-9910-9910-9910-9910-9910-
E|-----------------------------------------
_____________________________________________________________________________
Intro Continued
Guitar 1:
e|---------------------------------------------------------------------
B|-------------------------------------------7-------7-------5-------5-
G|-------------------------------------------7-------7-------5-------5-
D|-7------7-------7-------7---------7----7-7-7---7-7-7---5-5-5---5-5-5-
A|-0--0-0-6>7p0-0-6>7p0-0---0-6>7p0---0--5-5-----5-5-----3-3-----3-3---
E|---------------------------------------------------------------------

------- x2
Guitar 2: /
/
e|--------------------------------------------------------------------- /
B|--------------------------------------------------------------------- /
G|--------------------------------------------------------------------- /
D|-7------------------------------------------------------------------- /
A|-0-------------------------------------------------------------------
E|---------------------------------------------------------------------
_____________________________________________________________________________
Verse
Guitar 1:
(Note in the part with the bend-up, pull-off sixth fret on the A string
I used 'bp' BELOW the '670' instead of '6b7p0' like above, but it means the
same thing. Its just to make the second guitar part fit in on tabs.
e|--------------------------------------------------------------
B|--------------------------------------------7-------7-------5-
G|-5-7---8------------------------------------7-------7-------5-
D|-5-7---8--7-7-7-7-----7-----7---7---7---7-7-7---7-7-7---5-5-5-
A|-3-5---6--0-0-0-670-0-670-0---0-670---0-5-5-----5-5-----3-3---
E|-----------------bp----bp--------bp---------------------------

Guitar 2:
Part 1
Played with guitar 1 during verses and twice before verse 1.
e|--------------------------------------------------------------
B|--------8-8-8-8-8-8-8-8-8-8-8-8-8-8-8-8-7-7-7---7-7-7---5-5-5-
G|--------5-5-5-5-5-5-5-5-5-5-5-5-5-5-5-5-----------------------
D|--------------------------------------------------------------
A|--------------------------------------------------------------
E|--------------------------------------------------------------
Part 2
Played twice after part 1 before verse 1 and after 2nd chorus.
e|------------------------------------------------------------------------
B|----------------8-8---------8-8-----------------7-7---------------------
G|------------5-5---------5-5---------5-5-----5-5-----5-5-----5-5---------
D|--------7-7---------7-7---------7-7-----7-7-------------5-5-----5-5-7---
A|------------------------------------------------------------------------
E|------------------------------------------------------------------------
_______________________________________________________________________________
Bridge into Chorus
e|--------------
B|--------------
G|--------------
D|-9------11-11-
A|-0------0--0--
E|--------------

________________________________________________________________________________
Chorus
Part 1-
Guitar 1

e|-0-0-0000--00--000-|-0-0-0000--00--000-|
B|-0-0-0002--22--222-|-3-3-3333--33--333-|
G|-2-2-2222--22--222-|-2-2-2222--22--222-| x2
D|-2-2-2222--22--222-|-0-0-0000--00--000-|
A|-0-0-0000--00--000-|-------------------|
E|-------------------|-------------------|
Part 2-
Guitar 1
e|--------------------|-----------------|
B|--------------------|-----------------|
G|--------------------|-----------------|
D|--------------------|--------2-22-222-|
A|----5-5-5555-55-555-|-3-3-3330-00-000-|
E|----3-3-3332-22-222-|-1-1-111---------|


Guitar 2 ------ x2
(Only do the slide the first time around) /
/
e|----0-0-0000-00-000-|-0-0-0000-00-000-| /
B|----3-3-3333-33-333-|-3-3-3332-22-222-| /
G|----2-2-2222-22-222-|-2-2-2222-22-222-| /
D|----0-0-0000-00-000-|-----------------| /
A|--------------------|-----------------|/
E|-12----------------|-----------------|
_________________________________________________________________________________
Interlude
(After 2nd Chorus)

e|---------------------------------|----------------------------------|
B|---------------------------------|----------------------------------|
G|---------------------------------|----------------------------------|
D|-11--11--11119-7---7-7---7-7-7-7-|----10-------10-------10-------10-| x2
A|-0---0---0-0-0-0---0-0---0-0-0-0-|9-9-10---9-9-10---9-9-10---9-9-10-|
E|---------------------------------|----------------------------------|
_________________________________________________________________________________
Outro
Guitar 1
(This part is played x16 over guitar 2's 'part 1' then 'part 2')
e|--------------------------------|
B|--------------------------------|
G|--------------------------------|
D|-7--7-7-------------7-------7---| x16
A|-0--0-0-670-0-670-0---0-670---0-|
E|---------bp----bp--------bp-----|
Guitar 2
Part 1:
e|-----------------------------------------------------
B|-----------------------------------------------------
G|-2-------------------------------------------5-7---8-
D|-2--bu 1/2-----------------------------------5-7---8- x4
A|-0-------------------------------------------3-5---6-
E|-----------------------------------------------------
Part 2:
(121212 means 12,12,12,12, not 1,2,1,2
and 101010 means 10,10,10, not 1,0,1,0)
e|------------------------------|-----------------------------|
B|------------------------------|-----------------------------|
G|-1212121212-1212121212-121212-|1212121212-12121212125-7---8-|
D|------------------------------|---------------------5-7---8-| x4
A|-1010101010-1010101010-101010-|1010101010-10101010103-5---6-|
E|------------------------------|-----------------------------|
_______________________________________________________________________________
Guitar 1 and 2
e|-------------------------------------------|
B|-------------------------------------------|
G|-5-7---8---5-7---8---5-7---8---5-7---8-|
D|-5-7---8---5-7---8---5-7---8---5-7---8-| x2
A|-3-5---6---3-5---6---3-5---6---3-5---6-|
E|-------------------------------------------|
________________________________________________________________________________

Have It All
Verse 1
You’re my size I need to try you on
Someone in between the right and wrong
Through everything you kept your wings apart
Through everything you stayed the same or not*
Chorus
And when I’ve had enough
She drains me, when I’m empty
She fills herself she takes it all
In too deep, she’s spilling over me x2
Go on and have it all
Verse 2
Winding through this maze you hold me in
Searching all these days to find the end
You’re everything, you’re everything I’m not
But I’m anything I’m anyone you want
(chorus)
Have it all x2
You’re everything, you’re everything I’m not
I’m anything, I’m anyone you want
(chorus
In too deep she’s spilling over me x4)
Have it all.




Ваше мнение



Капча