Artist: Foo fighters, Brian May
Song: Have a cigar
(this is a version of the old Pink Floyd song and is on the MI2 soundtrack)
Album: Mission Impossible 2 soundtrack
Tab By: Paul Simpson ([email protected])
Intro:
D-----------------------------------------------------|
A-------3-------------------------------5-------------|
E-----------------------------------------------------|
D-----------------------------14-12-------------|
A------------------7-7-7-5-7--------14-12-------|
E-----------------------------------------15-12-|
Verse:
D----------------------------5-5-5-|
A--7-7-7-5-7-7-7-7-7-7-7-5-7-------| e.t.c
E----------------------------------|
Variation:
D---------------------------------------------------------|
A--------3-----------------------5----------------------7-|
E---------------------------------------------------------|
Chorus:
D----------------------------------------------------|
A-3-----------5-----------7---3--3--3-3-3------5-----|
E----------------------------------------------------|
D----------5-----5--5---5--------------------------------------------|
A---5--5------------------2--5--3---3---3-3---3------------8-7---7-6-|
E-----------------------------------------------5----3--3------------|
Verse 2 follows the same patterns as verse 1 but is just a bit longer.
Chorus 2 is the same as chorus 1.
Bass solo:
D---------------------------5-5-5-|
A--7-7-7-5-7-7-7-7-7-7-7-5-7------| e.t.c
E---------------------------------|
Guitar solo: (I might have missed out 1 or 2 riffs here but they are
all the same as each other anyway - you get the idea)
D-------------------------5-5-5-------------------------5-5-5-----|
A--7-7-7-5-7-7-7-7-7-7-5-7-----7-7-7-5-7-7-7-5-7-7-7-5-7----- X 3-|
E-----------------------------------------------------------------|
D-----4-5----------------------------------5-4-----------------------|
A-5-7----3-3-3-1-3-3-3-1-3-3-3-1-3-3-3-1-3-----7-7-7-5-7-7-7-5-7-7-7-|
E--------------------------------------------------------------------|
It all follows the same pattern and then at the end:
D--------------------------5--4--2---------------2-2-2-0-2-|
A-3-3-3-1-3-3-3-1--5--5--5---------5--4--2-3-4-5-----------|
E----------------------------------------------------------|
D------------5-5-5-|
A-7-7-7-7-5-7------|
E------------------|
Then It's chorus 3, but it has an ending like this:
D--10-9-7--------------------------------5-5-5-|
A---------10-9-8--7-7-7-5-7---7-7-7-7-5-7------|
E----------------------------------------------|
Then play guitar Solo again up to this bit where it goes:
D----------5--4--2---------------2-------------|
A--5--5--5---------5--4--2-3-4-5---------------|
E----------------------------------------0-----|
There, that's the end.
I think that this version is so much better than the origional.
The foos and Brian May did a great job because they didn't take anything
away from the origional version.
Anyway, have fun with this, and if you have any problems, please
e-mail me ([email protected])
Alright, bye.




Ваше мнение



Капча