HALO - FOO FIGHTERS
tabbed by tom kelly([email protected])

standard tuning

i'm not too sure about this tab. some bits are right but i think there'll
be some comments on this one. the prechorus and chorus were the only real
trouble, a couple of chords in there just don't seem to fit. see what you
think...

intro/verse:
Bm7 G F A
e|-------------------------------------------------------
B|-------------------------------------------------------
G|-7-7-7-7-7-7-7-7-7-7-7-7-7-7---------------------------
D|-5-5-5-5-5-5-5-5-5-5-5-5-5-5-3-3-3-3--7-7-7-7----------
A|-7-7-7-7-7-5-5-5-5-5-5-5-5-5-3-3-3-3--7-7-7-7----------
E|-------------5-----5---------3-3-3-3--7-7-7-7----------

for intro just play Bm7 and G, for verse play Bm7 and Dadd4
thru twice, then F and A.

prechorus:
e|----------------------------------------------------------------
B|----------------------------------------------------------------
G|-3-3-3-3--4-4-4-4--3-3-3--5--4-4-4-4--3-3-3-3--4-4-4-4--5-5-5-5-
D|-3-3-3-3--4-4-4-4--3-3-3--5--4-4-4-4--3-3-3-3--4-4-4-4--5-5-5-5-
A|-1-1-1-1--2-2-2-2--1-1-1--3--2-2-2-2--1-1-1-1--2-2-2-2--3-3-3-3-
E|----------------------------------------------------------------

chorus:
e|--------------------------------------------------
B|--------------------------------------------------
G|----------------5-5------------5-5-5-5--7-7-7-7---
D|-5-5--4-4--3-3--5-5--1-1--0-0--5-5-5-5--7-7-7-7---
A|-5-5--4-4--3-3--3-3--1-1--0-0--3-3-3-3--5-5-5-5---
E|-5-5--4-4--3-3-------1-1--0-0---------------------

bit after second chorus:
e|--------------------------------------------------
B|--------------------------------------------------
G|-5-5-5-5-7-7-7-7-8-8-8-8-10-10-10-10--------------
D|-5-5-5-5-7-7-7-7-8-8-8-8-10-10-10-10--------------
A|-3-3-3-3-5-5-5-5-6-6-6-6--8--8--8--8--------------
E|--------------------------------------------------

awaaaaaay........ solo bit:
e|--------------------------------------------------
B|--------------7-7-8-10----------------------------
G|--------------7----------7s9-9-9--7--5------------
D|-9-9-9s5-5-5--------------------------------------
A|--------------------------------------------------
E|--------------------------------------------------

e|------------------------------------------------------------
B|---------6-8---10-10-10-------------------------------------
G|--8-8-8---------9--9--9--12-11---9--9--9--9--11-11-11-12-12-
D|--8-8-8-------------------------10-10-10-10-----------------
A|------------------------------------------------------------
E|------------------------------------------------------------

e|-------------------------------------------------------
B|-7--8---10------------10-10-10-12-12----------------10-
G|-9b-10b-12b--12------------------------11-11-11-12-----
D|-------------12-12-12----------------------------------
A|-------------------------------------------------------
E|-------------------------------------------------------

e|------------------------------------------------
B|------------8--10---------------------------6-8-
G|--10-10-10----------7s9-9-9--7--5----8-8-8------
D|--10-10-10---------------------------8-8-8------
A|------------------------------------------------
E|------------------------------------------------

e|------------------------------------------------------------
B|--10-10-10---------------------------------------7--8---10--
G|---9--9--9--12-11---9--9--9--9--11-11-11-12-12---9b-10b-12b-
D|-------------------10-10-10-10------------------------------
A|------------------------------------------------------------
E|------------------------------------------------------------
thats about it. i'm sure you'll find something missing here or there,
still
it should have helped some.




Ваше мнение



Капча