Foo Fighters
Good Grief
By Harry ‘feet’ Scarr
Couldn’t find this song any where on the net so I wrote one!
Excellent song from the foo’s first album.
Any comments email me at [email protected]
Intro/Pre-Verse:
e:--------------------------------|------------------------------|
B:--------------------------------|------------------------------|
G:--------------------------------|------------------------------|
D:-------9---7---9---7---7-9---7--|-0-0---9---7---9---7---7-9-7--|
A:-9-9----------------------------|------------------------------|
E:--------------------------------|------------------------------|
e:-------------------------|------------|
B:-------------------------|------------|
G:-6---9~~~--6---9---6-----|------9~~~--|
D:-------------------------|-9----------|
A:-------------------------|------------|
E:-------------------------|------------|
Verse:
e:------------------------------------|------------------------------------|
B:------------------------------------|------------------------------------|
G:-4-4-4-4--4-4-4-4--4-4-4-4--4-4-4-4-|-7-7-7-7--7-7-7-7--7-7-7-7--7-7-7-7-|
D:-4-4-4-4--4-4-4-4--4-4-4-4--4-4-4-4-|-7-7-7-7--7-7-7-7--7-7-7-7--7-7-7-7-|
A:-2-2-2-2--2-2-2-2--2-2-2-2--2-2-2-2-|-5-5-5-5--5-5-5-5--5-5-5-5--5-5-5-5-|
E:------------------------------------|------------------------------------|
Since I'm good and down All the
e:------------------------------------|------------------------------------|
B:------------------------------------|------------------------------------|
G:------------------------------------|------------------------------------|
D:-4-4-4-4--4-4-4-4--4-4-4-4--4-4-4-4-|-7-7-7-7--7-7-7-7--7-7-7-7--7-7-7-7-|
A:-4-4-4-4--4-4-4-4--4-4-4-4--4-4-4-4-|-7-7-7-7--7-7-7-7--7-7-7-7--7-7-7-7-|
E:-2-2-2-2--2-2-2-2--2-2-2-2--2-2-2-2-|-5-5-5-5--5-5-5-5--5-5-5-5--5-5-5-5-|
truth is around but I like it...

Chorus:
e:------------------------------------|-----------------------------------|
B:------------------------------------|-----------------------------------|
G:-2-2-2-2--2-2-2-2-------------------|-------------------2-2-2-2--2-2-2-2|
D:-2-2-2-2--2-2-2-2--2-2-2-2--2-2-2-2-|-4-4-4-4--4-4-4-4--2-2-2-2--2-2-2-2|
A:-0-0-0-0--0-0-0-0--2-2-2-2--2-2-2-2-|-4-4-4-4--4-4-4-4--0-0-0-0--0-0-0-0|
E:-------------------0-0-0-0--0-0-0-0-|-2-2-2-2--2-2-2-2------------------|
Hate it! Hate it! Hate it! Hate it!
e:------------------------------------|------------------------------------|
B:------------------------------------|------------------------------------|
G:------------------------------------|-2-2-2-2--2-2-2-2-------------------|
D:-2-2-2-2--2-2-2-2--4-4-4-4--4-4-4-4-|-2-2-2-2--2-2-2-2--2-2-2-2--2-2-2-2-|
A:-2-2-2-2--2-2-2-2--4-4-4-4--4-4-4-4-|-0-0-0-0--0-0-0-0--2-2-2-2--2-2-2-2-|
E:-0-0-0-0--0-0-0-0--2-2-2-2--2-2-2-2-|-------------------0-0-0-0--0-0-0-0-|
Hate it! Hate it! Hate it!



Bridge:
e:---------------------------|------------------------------|
B:---------------------------|------------------------------|
G:---------2---2---2---2---2-|---------2---2---2---2---2---4|
D:---------2---2---2---2---2-|---------2---2---2---2---2---4|
A:-2---2---------------------|-2---2------------------------|
E:---------------------------|------------------------------|
e:------------------------------------|------------------|
B:------------------------------------|------------------|
G:-------------------2-2-2-2--2-2-2-2-|------------------|
D:-4-4-4-4--4-4-4-4--2-2-2-2--2-2-2-2-|-2-2-2-2--2-2-2-2-|
A:-4-4-4-4--4-4-4-4--0-0-0-0--0-0-0-0-|-2-2-2-2--2-2-2-2-|
E:-2-2-2-2--2-2-2-2-------------------|-0-0-0-0--0-0-0-0-|




Ваше мнение



Капча