Song: Gimme stitches
Artist: Foo Fighters
Album: There is nothing left to lose
Tabbed by Serena Di Iulio ICQ: 38559568
Member of the Bass Tab Archive Tabbing Army ~
http://www.basstabarchive.com

Intro.
2x
G||---------------------------||---------------------------|
D||*-------------------------*||---------------------------|
A||*--2/4--------------------*||--2/4---------2/4----------|
E||-------5----5----5--0--2---||------5----5------5--0--2--|

..I can be your right of way....
-------------------------|
-------------------------|
--2/4--------------------|
------5----5----5--0--2--|

-------------------------|-------------------------|
-------------------------|-------------------------|
--2/4--------------------|--0/2--------------------|
------5----5----5--0--2--|------5----5----5--0--2--|

-------------------------|-----------------------|
--------------------4----|-----------------------|
--0/2----5----4--7-------|-----------------------|
------5------------------|--2--2----2----2----2--|

------------------------|-------------------------|
------------------------|-------------------------|
-----7----7----7--------|--2/4--------------------|
--0---------------0--2--|------5----5----5--0--2--|
Sink with someone tired to me....

-------------------------|-------------------------|
-------------------------|-------------------------|
--2/4--------------------|--2/4--------------------|
------5----5--0--0--2----|------5----5----5--0--2--|

-------------------------|-------------------------|
-------------------------|-------------------------|
--2/4--------------------|--0/2--------------------|
------5----5----5--0--2--|------5----5----5--0--2--|

-------------------------|-----------------------|
--------------------4----|-----------------------|
--0/2----5----4--7-------|-----------------------|
------5------------------|--2--2----2----2----2--|

------------------------|--------------------------|
------------------------|--------------------------|
-----7----7----7--------|--------------------------|
--0---------------0--2--|--3--3----3-3-3--3----3-3-|

Dress me up in stitches......

-------------------------|
-------------------------|
-------------------------|
--3--3--3----3--0--4--0--|

------------------------|------------------------|
------------------------|------------------------|
------------------------|--5--5----5----5--5--7--|
--5--5----5----5--5--7--|------------------------|

-----------------------|--------------------------|
-----------------------|-----5--7h8-7--5----------|
--8--8----8----8----8--|--7---------------7-------|
-----------------------|---------------------8----|

------------------------|------------------------|
------------------------|------------------------|
------------------------|--5--5----5----5--5--7--|
--5--5----5----5--5--7--|------------------------|

-----------------------|---------9--10------12----------|
-----------------------|-----10---------12------12------|
--8--8----8----8----8--|--8-------------------------12--|
-----------------------|--------------------------------|

-------------------------|-------------------------|
-------------------------|-------------------------|
--2/4--------------------|--2/4--------------------|
------5----5----5--0--2--|------5----5--0--0--2----|

Take another stab at me.....
------------------|-------------------------|
------------------|-------------------------|
------------------|--2/4--------------------|
------------------|------5----5----5--0--2--|

-------------------------|-------------------------|
-------------------------|-------------------------|
--2/4--------------------|--0/2--------------------|
------5----5----5--0--2--|------5----5----5--0--2--|

-------------------------|-----------------------|
--------------------4----|-----------------------|
--0/2----5----4--7-------|-----------------------|
------5------------------|--2--2----2----2----2--|

------------------------|-------------------------|
------------------------|-------------------------|
-----7----7----7--------|--2/4--------------------|
--0---------------0--2--|------5----5----5--0--2--|

-------------------------|-------------------------|
-------------------------|-------------------------|
--2/4--------------------|--0/2--------------------|
------5----5----5--0--2--|------5----5----5--0--2--|

-------------------------|-----------------------|
--------------------4----|-----------------------|
--0/2----5----4--7-------|-----------------------|
------5------------------|--2--2----2----2----2--|

------------------------|--------------------------|
------------------------|--------------------------|
-----7----7----7--------|--------------------------|
--0---------------0--2--|--3--3----3-3-3--3----3-3-|

-------------------------|
-------------------------|
-------------------------|
--3--3--3----3--0--4--0--||

Dress me up in stitches
------------------------|------------------------|
------------------------|------------------------|
------------------------|--5--5----5----5--5--7--|
--5--5----5----5--5--7--|------------------------|

-----------------------|--------------------------|
-----------------------|-----5--7h8-7--5----------|
--8--8----8----8----8--|--7---------------7-------|
-----------------------|---------------------8----|

------------------------|------------------------|
------------------------|------------------------|
------------------------|--5--5----5----5--5--7--|
--5--5----5----5--5--7--|------------------------|

-----------------------|---------9--10------12----------|
-----------------------|-----10---------12------12------|
--8--8----8----8----8--|--8-------------------------12--|
-----------------------|--------------------------------|

How can you go on.....
--------------------------|--------------------------|
--------------------------|--------------------------|
--------------------------|--------------------------|
--5--5--5--5--5--5--5--5--|--4--4--4--4--4--4--4--4--|

---------------------|--------------------------|
--------------5------|--4--5--4--3--2-----------|
---------5-----------|-----------------5--------|
--3------------------|--------------------3--0--|
Gimme stitches now or never....
-----------------------|-----------------------|
-----------------------|-----------------------|
-----------------------|--3--3----3----3----3--|
--1--1----1----1----1--|-----------------------|

-----------------------|-----------------------|
-----------------------|-----------------------|
-----------------------|--3--3----3----3----3--|
--1--1----1----1----1--|-----------------------|

-----------------------|-----------------------|
-----------------------|-----------------------|
-----------------------|--3--3----3----3----3--|
--1--1----1----1----1--|-----------------------|
Blood on you......
--------------------------|--------------------------|
--------------------------|--------------------------|
--------------------------|--5--5--5--5--5--5--5--7--|
--5--5--5--5--5--5--5--5--|--------------------------|

--------------------------|--------------------------|
-----------------------5--|--------------------------|
--8--8--8--8--8--8--8-----|--------------------------|
--------------------------|--8--8--8--8--8--8--8--8--|

--------------------------|--------------------------|
--------------------------|--------------------------|
--------------------------|--5--5--5--5--5--5--5--7--|
--5--5--5--5--5--5--5--5--|--------------------------|

--------------------------|--------------------------|
--------------------------|-----5--7h8-7--5----------|
--8--8--8--8--8--8--8--8--|--7---------------7-------|
--------------------------|---------------------8----|

--------------------------|--------------------------|
--------------------------|--------------------------|
--------------------------|--5--5--5--5--5--5--5--7--|
--5--5--5--5--5--5--5--5--|--------------------------|

--------------------------|--------------------------|
-----------------------5--|--------------------------|
--8--8--8--8--8--8--8-----|--------------------------|
--------------------------|--8--8--8--8--8--8--8--8--|

--------------------------|--------------------------|
--------------------------|--------------------------|
--------------------------|--5--5--5--5--5--5--7--8--|
--5--5--5--5--5--5--5--5--|--------------------------|

--------------------------|-----7--10--7--12------------|
--------------------------|-------------------12--------|
--8--8--8--8--8--8--8--8--|--5--------------------12----|
--------------------------|-----------------------------|

How can you go on....

--------------------------|
--------------------------|
--------------------------|
--5--5--5--5--5--5--5--5--|

--------------------------|---------------------|
--------------------------|--------------5------|
--------------------------|---------5-----------|
--4--4--4--4--4--4--4--4--|--3------------------|

--------------------------|-----------------------|
--4--5--4--3--2-----------|-----------------------|
-----------------5--------|-----------------------|
--------------------3--0--|--1--1----1----1----1--|

-----------------------|-----------------------|
-----------------------|-----------------------|
--3--3----3----3----3--|-----------------------|
-----------------------|--1--1----1----1----1--|

-----------------------|-----------------------|
-----------------------|-----------------------|
--3--3----3----3----3--|-----------------------|
-----------------------|--1--1----1----1----1--|

-----------------------|-----------------------|
-----------------------|-----------------------|
--3--3----3----3----3--|-----------------------|
-----------------------|--1--1----1----1----1--|

-----------------------|------------------------|
-----------------------|------------------------|
--3--3----3----3----3--|--2/4-------------------|
-----------------------|------5----5----5----5--|

------------------------|------------------------|
------------------------|------------------------|
--2/4-------------------|--2/4-------------------|
------5----5----5----5--|------5----5----5----5--|

-------------------------||
-------------------------||
--2/4--------------------||
------5----5--0--0--2----||




Ваше мнение



Капча