-##
From: [email protected]
Date: Sat, 29 Jul 1995 13:36:36 -0400
Subject: TAB: Foo FIghters - "For All The
======================
FOO FIGHTERS
----------------
For All The Cows
======================
Tabbed by Jeff Aldrich ([email protected])
This song is very simple. It's in 3/4 time, for anyone who's interested
in stuff like that. The intro and verse are played on a clean soundind
guitar with no distortion. Then the chorus is played with loud power
chords and heavy distrortion. The last verse is played with distortion.
Standard tuning, just take the parts and fit them where they belong.
Please E-Mail me with comments, suggestions, questions or criticisms
about the TAB. I love hearing from people, and it can really suck to
post all these TABs and not get any mail about it! :)

Intro/Verse:
e:-------------------------------------|
B:-------------------------------------|
G:---------------------9-------------9-|
D:------10-----9-------9---------9---9-|
A:------10-----9-----------------7---7-|
E:-8-----------------------------------|
I'm called a cow.
e:------------------------------------------------------|
B:------------------------------------------------------|
G:----------------------9-----------------------7--8--9-|
D:------10-----9--------9--------------7--8--9----------|
A:------10-----9--------------7--8--9-------------------|
E:-8----------------------------------------------------|
And I'm not about to blow it now...

Chorus:
e:-----------------------------------|------------------------------------|
B:-----------------------------------|------------------------------------|
G:-----------------------------------|------------------------------------|
D:-5-----5--5-----5--5-----5--5----5-|-9-----9--9-----9--9-----9--9-----9-|
A:-5-----5--5-----5--5-----5--5----5-|-9-----9--9-----9--9-----9--9-----9-|
E:-3-----3--3-----3--3-----3--3----3-|-7-----7--7-----7--7-----7--7-----7-|
My kind has all run out
Part II
e:---------------------------------------|
B:---------------------------------------|
G:---------------------5--5--5---5--5--5-|
D:-7--7--7---7--7--7---5--5--5---5--5--5-| x 3
A:-7--7--7---7--7--7---3--3--3---3--3--3-|
E:-5--5--5---5--5--5---------------------|
Everything worn in.... (like it's)
e:----------------------------|
B:----------------------------|
G:----------------------------|
D:-2--2--2---2--2--2---2------|
A:-2--2--2---2--2--2---2------|
E:-0--0--0---0--0--0---0------|
a friend.

Lyrics:
I'm called a cow
And I'm not about to blow it now
For all the cows.
It's funny how money allows all to browse
and be endowed.
This wish is true.
It falls into pieces new.
The cow is you
My kind has all run out, as if kinds could blend.
Some time if time allows,
Everything worn in, everything worn in,
Everything worn in like it's a friend.
I said you're all a painted doll
And it caused the walls to fall
How far is he?
Impatiently
That's as far as far can be
Enjoy the TAB!


Ваше мнение



Капча