foo fighters
for all the cows
album: foo fighters
submitted by matt burgess
(Normal Tuning)
Intro
G E G
e||-----------------0----0------------0------------------------||
B||----3---0--------0----0-----3---0--0------------------------||
G||----3---2--------1----------3---2--------------------2-3-4--||
D||----x---1---1-------2-------x---1--------------0-1-2--------||
A||--3-3---2-----2-----2-----3-3---2---------------------------||
E||--------------------0----------------0-0-3-4-5--------------||
Verse
G E G E
e||----------------0-----0-----------------0-------||
B||----3---0-------0-----------3---0--------0------||
G||----3---2-------1-----------3---2---------1-----||
D||----x---1--1----2-----------x---1--1-------2----||
A||--3-3---2----2--2---------3-3---2----2------2---||
E||----------------0--0-------------------------0--||
Chorus
e||----------------------------------|-------------------------------|------------------------||
B||----------------------------------|-------------------------------|------------------------||
G||--4---4---4---4---4-4-4-4-4-4-4-4-|-------------9--9--9--9--9--9--|-9-9-9-9-9-9-9-9-9-9-9--||
D||--5---5---5---5---4-4-4-4-4-4-4-4-|-7-7-7-7-7-7-8--8--8--8--8--8--|-9-9-9-9-9-9-9-9-9-9-9--||
A||--5---5---5---5---2-2-2-2-2-2-2-2-|-7-7-7-7-7-7-10-10-10-10-10-10-|-7-7-7-7-7-7-7-7-7-7-7--||
E||--3-0-3-0-3-0-3-0-----------------|-5-5-5-5-5-5-8--8--8--8--8--8--|-0-0-0-0-0-0-0-0-0-0-0--||
(3x) (3x)




Ваше мнение



Капча