foo fighters
floaty
album: foo fighters
submitted by m. burgess
(Normal Tuning)
Gtr. 1 plays the upper part while Gtr. 2 plays bottom part.
Intro
e|-0--0-0-0--0--0-0-0--0--0-0-0--0--0-0-0-|
B|-0--0-0-0--0--0-0-0--0--0-0-0--0--0-0-0-|
G|-8--8-8-8--8--8-8-8--8--8-8-8--8--8-8-8-|
D|-9--9-9-9--9--9-9-9--9--9-9-9--9--9-9-9-|
A|-7--7-7-7--7--7-7-7--7--7-7-7--7--7-7-7-|
E|-0---------0---------0---------0--------|
|
e|-0--0-0-0--0--0-0-0--0--0-0-0--0--0-0-0-|
B|-4--4-4-4--4--4-4-4--4--4-4-4--4--4-4-4-|
G|----------------------------------------|
D|----------------------------------------|
A|----------------------------------------|
E|----------------------------------------|
e|-0--0-0-0--0--0-0-0--0--0-0-0--0--0-0-0-|
B|-0--0-0-0--0--0-0-0--0--0-0-0--0--0-0-0-|
G|-8--8-8-8--8--8-8-8--8--8-8-8--8--8-8-8-|
D|-9--9-9-9--9--9-9-9--9--9-9-9--9--9-9-9-|
A|-7--7-7-7--7--7-7-7--7--7-7-7--7--7-7-7-|
E|-0---------0---------0---------0--------|
|
e|-0--0-0-0--0--0-0-0--0--0-0-0--0--0-0-0-|
B|-4--4-4-4--4--4-4-4--4--4-4-4--4--4-4-4-|
G|----------------------------------------|
D|----------------------------------------|
A|----------------------------------------|
E|----------------------------------------|
e|-0--0-0-0--0--0-0-0--0--0-0-0--0--0-0-0-|
B|-0--0-0-0--0--0-0-0--0--0-0-0--0--0-0-0-|
G|-6--6-6-6--6--6-6-6--6--6-6-6--6--6-6-6-|
D|-7--7-7-7--7--7-7-7--7--7-7-7--7--7-7-7-|
A|-5--5-5-5--5--5-5-5--5--5-5-5--5--5-5-5-|
E|----------------------------------------|
|
e|-0--0-0-0--0--0-0-0--0--0-0-0--0--0-0-0-|
B|-2--2-2-2--2--2-2-2--2--2-2-2--2--2-2-2-|
G|----------------------------------------|
D|----------------------------------------|
A|----------------------------------------|
E|----------------------------------------|
e|-0--0-0-0--0--0-0-0--0--0-0-0--0--0-0-0-|
B|-0--0-0-0--0--0-0-0--0--0-0-0--0--0-0-0-|
G|-4--4-4-4--4--4-4-4--2--2-2-2--2--2-2-2-|
D|-5--5-5-5--5--5-5-5--2--2-2-2--2--2-2-2-|
A|-3--3-3-3--3--3-3-3--0--0-0-0--0--0-0-0-|
E|----------------------------------------|
|
e|-0--0-0-0--0--0-0-0--0--0-0-0--0--0-0-0-|
B|-1--1-1-1--1--1-1-1--1--1-1-1--1--1-1-1-|
G|---------------------2--2-2-2--2--2-2-2-|
D|----------------------------------------|
A|----------------------------------------|
E|----------------------------------------|
Verse
e|----------0------------0------------0------------0-----|
B|------------0------------0------------0------------0---|
G|-8--8-8-8-----8--8-8-8-----8--8-8-8-----8--8-8-8-----8-|
D|-9--9-9-9-----9--9-9-9-----9--9-9-9-----9--9-9-9-----9-|
A|-7--7-7-7-----7--7-7-7-----7--7-7-7-----7--7-7-7-----7-|
E|-0------------0------------0------------0--------------|
|
e|-0--0-0-0-0-0-0--0-0-0-0-0-0--0-0-0-0-0-0--0-0-0-0-0-0-|
B|-4--4-4-4-4-4-4--4-4-4-4-4-4--4-4-4-4-4-4--4-4-4-4-4-4-|
G|-------------------------------------------------------|
D|-------------------------------------------------------|
A|-------------------------------------------------------|
E|-------------------------------------------------------|
He floats Floats away
e|----------0------------0--------------0--------------0---|
B|------------0------------0--------------0--------------0-|
G|-6--6-6-6-----6--6-6-6-----6-4--4-4-4-----4-2--2-2-2-----|
D|-7--7-7-7-----7--7-7-7-----7-5--5-5-5-----5-2--2-2-2-----|
A|-5--5-5-5-----5--5-5-5-----5-3--3-3-3-----3-0--0-0-0-----|
E|---------------------------------------------------------|
|
e|-0--0-0-0-0-0-0--0-0-0-0-0-0-0--0-0-0-0-0-0-0--0-0-0-0-0-|
B|-2--2-2-2-2-2-2--2-2-2-2-2-2-1--1-1-1-1-1-1-1--1-1-1-1-1-|
G|--------------------------------------------2--2-2-2-2-2-|
D|---------------------------------------------------------|
A|---------------------------------------------------------|
E|---------------------------------------------------------|
On the ground he comes back down
Chorus
e|---------------------------|
B|---------------------------|
G|---4--4--2-1----4--4--2-1--|
D|---------------------------|
A|---------------------------|
E|-0------------0------------|
|
e|---------------------------|
B|---------------------------|
G|---------------------------|
D|-2------------2------------|
A|-2------------2------------|
E|-0------------0------------|
e|---------------------------------|
B|---------------------------------|
G|-------------------------6-6-6-6-|
D|-6-6-6-6-6-6-6-6-7-7-7-7-6-6-6-6-|
A|-6-6-6-6-6-6-6-6-7-7-7-7-4-4-4-4-|
E|-4-4-4-4-4-4-4-4-5-5-5-5---------|
That's not as big as what's float - ing
Bridge
e|--------------------------------------------------------------|
B|--------------------------------------------------------------|
G|-4-4-4-4-4-4-4--7-7-7-7-7--4-7--------------------------------|
D|-4-4-4-4-4-4-4--7-7-7-7-7--4-7--6-6-6-6-6-6-6---2-2-2---6-6-6-|
A|-2-2-2-2-2-2-2--5-5-5-5-5--2-5--6-6-6-6-6-6-6---2-2-2---6-6-6-|
E|--------------------------------4-4-4-4-4-4-4---0-0-0---4-4-4-|




Ваше мнение



Капча