February Stars- by the Foo Fighters from "the Colour and the Shape"
tabbed by weevil ([email protected])

dropped D tuning

e|--5--5---5-----5----3-3---7-7-7---3-3--7-7----5---5-----
B|--8----8-7---7---7--5--5--8----8--5--5-8--8---7-7---7---
G|--7------7-7------7-4-----7-----7-4----7---7--7-------7-
D|--0------0----------0-----0-------0----0------0---------
A|--------------------------------------------------------
D|--------------------------------------------------------
hangin on...

e|-2--2---2-----------0----------2-0------------2-0-------
B|-3----3---3-------3---3------3-----3--------3-----3-----
G|-4-----------4--4-------4---4---------4-4--4---------4--
D|--------------------------------------------------------
A|--------------------------------------------------------
D|--------------------------------------------------------
one day youll have enough to give more

e|------3-3-3---------0---0-------2-0-----------2-0---0---
B|----3---3----3--------3---3----3----4-------3----3--3---
G|--4------------4--4---------4-4-------4-4-4-------4-2---
D|--------------------------------------------------------
A|--------------------------------------------------------
D|--------------------------------------------------------
ill wait to hear you final call

e|--------------------------------------------------------
B|--------------------------------------------------------
G|----------------------7--7--7---------------------------
D|-5-4--2-0---5--5------7--7--7------4--4--4--4-----------
A|-5-4--2-0---5--5------5--5--5------4--4--4--4-----------
D|-5-4--2-0---5--5-------------------4--4--4--4-----------
february stars floating in the dark

e|--------------------------------------------------------
B|--------------------------------------------------------
G|-------------9-9-9--9----12--12--12-12------------------
D|-5---5-------9-9-9--9----12--12--12-12--0---------------
A|-5---5-------7-7-7--7----10--10--10-10--0---------------
D|-5---5----------------------------------0---------------
temporary 'scar'? february stars

-repeat the above 3 times and end the third with
e|--------------------------------------------------------
B|--------------------------------------------------------
G|---------------------------------------------------------
D|-5-5-5-5-5-5-5-5-5-----0--------------------------------
A|-5-5-5-5-5-5-5-5-5-----0--------------------------------
D|-5-5-5-5-5-5-5-5-5-----0--------------------------------




Ваше мнение



Капча