e: Mon, 20 Apr 1998 13:42:11 PDT
From: AARON THOMAS
Subject: f/foo_fighters/febraury_stars.tab

Song:February Stars
Album:The Colour and The Shape
Artist:Foo Fighters
Tabbed By:Aaron Thomas in Cross Lake
THIS SONG IS EASY ONCED YOU'RE USED TO IT. THIS ALSO HAS LYRICS.
Main Riffs:
E-5---5---5---5-5---5---5-5---5---5---7-7---7---7-7---7---7---7
B-7--7-7-7-7--6--6-6-5-6--5--5-5-5-5--7--7-7-7-7--8--8-8-8-8--7
G-7-7---7---7-7---7---7---6-6---6---6-7---7---7---9-9---9---9-7
D--------------------------------------------------------------
A--------------------------------------------------------------
D--------------------------------------------------------------

E-7---7---7-5---5---5--
B--7-7-7-7--6--6-6-6-6-
G---7---7---7-7---7---7
D----------------------
A----------------------
D----------------------

Riff 1
E-5-5-5-5-5-5-5-5-5-5-5-5-7-7-7-7-7-7-7-7-7-7-7-7-5-5-5-5
B-7-7-7-7-6-6-6-6-5-5-5-5-7-7-7-7-8-8-8-8-7-7-7-7-6-6-6-6
G-7-7-7-7-7-7-7-7-7-7-7-7-7-7-7-7-9-9-9-9-7-7-7-7-7-7-7-7
D--------------------------------------------------------
A--------------------------------------------------------
D--------------------------------------------------------

PLAY MAIN RIFFS BUT WITHOUT STRUMMING.JUST PICKING.

Riff 2:
P.M|-----------|
E--------------------
B--------------------
G--------------------
D-5-5-5-5-5-5-5-5-5-0
A-5-5-5-5-5-5-5-5-5-0
D-5-5-5-5-5-5-5-5-5-0

RIFF 3
E-------------------------------------------------
B-------------------------------------------------
G---------------7-7-7-------------9-9-9-12-12-12--
D-5-4-2-0-5-5-5-7-7-7-4-4-4-5-5-5-9-9-9-12-12-12-0
A-5-4-2-0-5-5-5-5-5-5-4-4-4-5-5-5-7-7-7-10-10-10-0
D-5-4-2-0-5-5-5-------4-4-4-5-5-5----------------0
LYRICS:HANGING ON HERE UNTIL I^ТM GONE I^ТM RIGHT WHERE I BELONG JUST
HANGING ON EVEN THOUGH I WATCHED YOU COME AND GO HOW WAS I TO KNOW YOU^ТD
STEAL THE SHOW ONE DAY I^ТLL HAVE ENOUGH TO GAMBLE I^ТLL WAIT TO HERE YOUR
FINAL CALL AND BET IT ALL HANING ON HERE UNTIL I^ТM GONE I^ТM RIGHT WHERE
I BELONG JUST HANGING ON YOU ASK FOR WALLS I^ТLL BUILD THEM HIGHER WE^ТLL
LIE IN SHADOWS OF THEM ALL I^ТD STAND BUT THEY^ТRE MUCH TOO TALL AND I^ТLL
FALL FEBRUARY STARS FLAOTING IN THE DARK TEMPORARY SCARS FEBRAURY STARS




Ваше мнение



Капча