ARTIST- Foo Fighters
SONG - Exhausted
ALBUM - Foo Fighters
TUNING- Drop D tuning

VERSE (Play 3 times after guitar intro)
G-------------------------------------------------------|
D-------------------------------------------------------|
A-------------5-2--2-2--2-2-3-------------3-0--0-0--0-0-|
D-0--0-0--0-0-----------------3--3-3--3-3---------------|

|------------------------------|
|------------------------------|
|-3-------------3-0--0-0--0-0--|
|---3--3-3--3-3----------------|

END OF VERSE
G-------------------------------------------------------|
D-------------------------------------------------------|
A-1-1-1-1-1-1-1-1-0-0-0-0-0-0-0-0-2-2-2-2-2-2-2-2-2-2-2-|
D-------------------------------------------------------|

|-----------|
|-----------|
|-2-2-2-2-2-|
|-----------|

INTERLUDE
G------------------------------|
D------------------------------|
A------------------------------|
D--0-3-5-7-3-0-3-0-3-0-4-5-7---|

BRIDGE (Played once after 1st interlude & long feedback)
G-------------------------------------------------------|
D-------------------------------------------------------|
A-------------5-2--2-2--2-2-3-------------3-7-7-7-7-7-7-|
D-0--0-0--0-0-----------------3--3-3--3-3---------------|
|-------------------------------------------------------|
|-7-7-3-3-3-3-3-3-3-3-7-7-7-7-7-7-7-7-------------------|
|-------------------------------------------------------|

|-------------------------------------------------------|

OUTRO (Played once at the end & fades out)
G-------------------------------------------------------|
D-------------------------------------------------------|
A-------------5-2--2-2--2-2-3-------------3-0--0-0--0-0-|
D-0--0-0--0-0-----------------3--3-3--3-3---------------|

|------------------------------------------------------|
|------------------------------------------------------|
|-3-------------3-0--0-0--0-0--------------5-2--2-2--2-|
|---3--3-3--3-3----------------0--0-0--0-0-------------|
|------------------------------------------------------|
|------------------------------------------------------|
|-2-3-------------3-0--0-0--0-0-3-------------3-0--0-0-|
|-----3--3-3--3-3-----------------3--3-3--3-3----------|

|------------------------------------------------------|
|------------------------------------------------------|
|-0-0--1-1-1-1-1-1-1-1-0-0-0-0-0-0-0-0-2-2-2-2-2-2-2-2-|
|------------------------------------------------------|

|------------------------------------------------------|
|------------------------------------------------------|
|-2-2-2-2-2-2-2-2-------------5-2--2-2--2-2-3----------|
|-----------------0--0-0--0-0-----------------3--3-3--3|

|---------------------------------------------|
|---------------------------------------------|
|---3-0--0-0--0-0-3-------------3-0--0-0--0-0-|
|-3-----------------3--3-3--3-3---------------|

Jay Bilyk
[email protected]




Ваше мнение



Капча