INTRO ONLY

all the other tabs i've seen don't sound right so i did one of my own..well the beginning anyway

E---------------------------------------------------------
B---------------------------------------------------------
G---------------------------------------------------------
D-------13---13-13----13------13----13-13-13--------
A-------11---11-11----11------11----11-11-11--------
E-0-0------0---------0-----0-0-----0-------------0h9-9

-----------------------------------------------------------
-----------------------------------------------------------
-----------------------------------------------------------
13----13-13---13-----13----13-13-13----------9-9----
11----11-11---11-----11----11-11-11----------7-7----
----9---------9----9-9-----9-------------9--5-5---------

-----------------------------------------------------------
-----------------------------------------------------------
-----------------------------------------------------------
-----9-9------13-13------13-13------13-13------13-13
-----7-7------11-11------11-11------11-11------11-11
5-5-------9-9--------9-9---------9-9---------9-9-------

play this 2x for the intro then 2x for each verse.
listen to the acoustic version to get the rest of the song!




Ваше мнение



Капча