This song is easy once you get the hang of it.it shouldnt take long to learn. There are really only three parts to it and you can hold your fingers the same way for most of it. Just practice and listen to it alot and memorize the order.

Email me wth questions or comments : [email protected]

Dropped D tuning
- from standard tuning Tune the sixth string down until it sounds like your 4th string but lower
- Or, tune your sixth string down until 5th string open sounds like 7th fret on 6th string.

Sorry how spaced out it is - but it was the only way i could think of adding the lyrics easily.
Verse

e|----------------------------------------------
B|----------------------------------------------
G|----------------------------------------------
D|---------11---11-11---11-11---11---11-11-11---
A|---------9----9--9----9--9----9----9--9--9----
D|-----0-0-0--0-0--0--0-0--0--0-0--0-0--0--0--0-
1 hello
2 Tonight
3
4 Come Down
5 Show how
(play prechorus, chorus, thingy)
6
7 Breathe Out
8 And now
e|----------------------------------------------
B|----------------------------------------------
G|----------------------------------------------
D|---------11---11-11---11-11---11---11-11-11---
A|---------9----9--9----9--9----9----9--9--9----
D|-----9-9-9--9-9--9--9-9--9--9-9--9-9--9--9--9-
1 I've waited here for you
2 I throw myself into
3
4 And waste away with me
5 You wanted it to be
6
7 So i can breathe you in
8 I know you've always been
e|-------------------------------------------------------
B|-------------------------------------------------------
G|-------------------------------------------------------
D|-------------7-------------7---------11------------11--
A|-------------5-------------5---------9-------------9---
D|----5--5--5--5-5--5--5--5--5-5/9--9-----9--9--9--9----9
1 everlong
2 out of the red, Out of her head she sang
3
4 Down with with me
5 Out of the red, out of her head she sang
6
7 Hold you in
8 Out of the red, out of my head i sang

e|---------------------------------
B|---------------------------------
G|---------------------------------
D|-----------11--------------11----
A|-----------9---------------9-----
D|-----9--9--9---9--9--9--9--9--9--
1
2
3
4
5
6
7
8
PreChorus/Breakdown :
There are two ways he plays it - the first time the sixth string isnt played.
the second time, the sixth string is played the first time but not the others
In the breakdown, he plays the sixth string all the time

e|------------------------------------------------------
B|------------------------------------------------------
G|-----6-6-6--7-7-7--9-9-9--11-11-11--------------------
D|-----x-x-x--x-x-x--x-x-x--x--x--x------7---7-7--7-7-7-
A|-----4-4-4--5-5-5--7-7-7--9--9--9------7---7-7--7-7-7-
D|-----0-0-0--0-0-0--0-0-0--0--0--0------7---7-7--7-7-7-




Ваше мнение



Капча