-normal tuning
INTRO and Verse:
E|---------------------------------------------------------------------|
B|---------------------------------------------------------------------|
G|---------------------------------------------------------------------|
D|------11----11-11----11-------11----11-11-11------11---11-11----11---|
A|------9-----9--9-----9--------9-----9--9--9-------9----9--9-----9----|-|
E|10-10----10-------10----10-10----10-----------7-7----7-------7-------| |
|
|--------------------------continued------------------------------------|
|
|>E|---------------------------------------------------------------------|
B|---------------------------------------------------------------------|
G|---------------------------------------------------------------------|
D|----11---11-11-11-----7-------7-------11-------11-------11-------11--|
A|----9----9--9--9------5-------5-------9--------9--------9--------9---|
E|7-7----7----------5-5---5-5-5---5-9-9----9-9-9----9-9-9----9-9-9----9|

PRECHORUS:
E|---------------------------------------------------------------------|
B|---------------------------------------------------------------------|
G|-666666666/77777777/999999999/1111111111111111/121212-9-9-9--99------|
D|-444444444/55555555/777777777/9-9-9-9-9-9-9-9-/101010-7-7-7--77------|
A|-444444444/55555555/777777777/9-9-9-9-9-9-9-9-/101010-7-7-7--77------|
E|---------------------------------------------------------------------|

CHORUS:
E|---------------------------------------------------------|
B|---------------------------------------------------------|
G|44444-------7777777777-44444-------7777777777-44444------|
D|44444-55555-5555555555-44444-55555-5555555555-44444-55555|
A|22222-55555-5555555555-22222-55555-5555555555-22222-55555|--|
E|------33333------------------33333------------------33333| |
|----------continued----------------------------------------|
|>E|--------------------------------|
B|-77777--------------------------|
G|-77777-77777-777-777-777-777----|
D|-55555-77777-777-777-777-777----|
A|-------55555-555-555-555-555----|
E|--------------------------------|
BREAKDOWN:
E|----------------------------------------------|
B|----------------------------------------------|
G|-666666666/77777777/999999999/111111111111111-|
D|-444444444/55555555/777777777/9-9-9-9-9-9-9-9-|8X
A|-444444444/55555555/777777777/9-9-9-9-9-9-9-9-|
E|----------------------------------------------|
END CHORD:
E|------|
B|------|
G|--11--|
D|--9---|
A|--10--|
E|------|




Ваше мнение



Капча