-------------------------------------------------------------------------------
foo fighters - Everlong
-------------------------------------------------------------------------------
Tabbed by: Sam Smith
Tuning: Dropped D
Intro (Played fast with chords played softly over the top)

Dmaj7 Bsus2
e|---------------------------------------------------------------------------|
B|---------------------------------------------------------------------------|
G|---------------------------------------------------------------------------|
D|-----11---11-11-----11--11-11-11----11--11-11--11---11---11-11-11----------|
A|-----9----9--9------9---9--9--9-----9---9--9---9----9----9--9--9--0--------|
D|-0-0----0------0--0---0---------0-9---9------9----9----9----------0--------|
Gsus2 Bsus2
e|---------------------------------------------------------------------------|
B|---------------------------------------------------------------------------|
G|---------------------------------------------------------------------------|
D|-----7-------7--------11-------11-------11------11-------------------------|
A|-----5-------5--------9--------9--------9-------9--------------------------|
D|-5-5---5-5-5---5--9-9----9-9-9---9--9-9---9-9-9----9-----------------------|

The Rest of the band enters. Crank to Distortion.
e|---------------------------------------------------------------------------|
B|---------------------------------------------------------------------------|
G|---------------------------------------------------------------------------|
D|-4---------------4----------------------7-7/-11-11-11-11-------------------|
A|-0---------------0-0--9------------9-0--5-5/-9--9--9--9-etc----------------|
E|-4---------------4-0--9------------9-0--5-5/-9--9--9--9--------------------|
L.R-------------- L.R----------

Intro Played in Backround of this ( use full chords for this)
e|---------------------------------------------------------------------------|
B|---------------------------------------------------------------------------|
G|-9---9---9---9---9---9---9--11-9-------------------------------------------|
D|-11--11--11--11--11--11--11-11-11------------------------------------------|
A|-9---9---9---9---9---9---9--9--9-------------------------------------------|
D|---------------------------------------------------------------------------|
Verse
e|---------------------------------------------------------------------------|
B|---------------------------------------------------------------------------|
G|---------------------------------------------------------------------------|
D|-11-------11-------7--------11---------------------------------------------|
A|-9--etc---9--etc---5---etc--9--etc-----------------------------------------|
D|-0--------9--------5--------9----------------------------------------------|
Pre Chorus
e|---------------------------------------------------------------------------|
B|---------------------------------------------------------------------------|
G|-6-6-6-7-7-7-9-9-9-11-11-11-11-12-14------------------6-6-6-7-7-7-9-9-9----|
D|-0-0-0-0-0-0-0-0-0-0--0--0--0--0--0---7--7-7--7-7-7---0-0-0-0-0-0-0-0-0----|
A|-4-4-4-5-5-5-7-7-7-9--9--9--9--10-12--7--7-7--7-7-7---4-4-4-5-5-5-7-7-7----|
D|-0-0-0-0-0-0-0-0-0-0--0--0--0--0--0---7--7-7--7-7-7-0-0-0-0-0-0-0-0-0-0----|
'And I Wonder-
e|--------------------------------------------------------------------------|
B|--------------------------------------------------------------------------|
G|-11-11-11-11-12-14---------------6-6-6-7-7-7-9-9-9-11-11-11-11-12-14------|
D|-0--0--0--0--0--0--7--7-7--7-7-7-0-0-0-0-0-0-0-0-0-0--0--0--0--0--0-------|
A|-9--9--9--9--10-12-7--7-7--7-7-7-4-4-4-5-5-5-7-7-7-9--9--9--9--10-12------|
D|-0--0--0--0--0--0--7--7-7--7-7-7-0-0-0-0-0-0-0-0-0-0--0--0--0--0--0-------|
-when I sing a-long_with you'
Chorus
e|---------------------------------------------------------------------------|
B|------------------3------4th Time round------------------3-----------------|
G|------------------2--------------------------------------2-----------------|
D|-9-----0--5-----0-0----------------------9-----0-5-----0-0-7---------------|
A|-9-etc-0--5-etc-0-0-etc------------------9-etc-0-5-etc-0-0-7-etc-----------|
D|-9-----0--5-----0-0----------------------9-----0-5-----0-0-7---------------|
Verse
Hello I've waited here for you everlong,
Tonight I've Thrown myself into and out of red,
Out of her head she sang.
Pre Chorus
And I wonder, when I sing along with you.
Chorus
If everything could ever feel this real forever.
If anything could ever be this good again.
The only thing I'll ever ask of you;
You've got to promise not to stop when I say when.
She sang......
Verse 2
Come down and waste away with me,
Down with me slow,
How you wanted it to be,
I'm over my head,
Out of her head,
She said to me
| / slide up
| slide down
| h hammer-on
| p pull-off
| ~ vibrato
| + harmonic
| x Mute note
===============================================================================




Ваше мнение



Капча