Date: Mon, 16 Dec 1996 06:33:18 -0500 (EST)
From: ~justin
Subject: Tab "Enough Space" by Foo Fighters
this Song should be on their next album its on a few bootlegs and
its pretty cool.
here's the main riff of the song: (the \ symbol means slide)
e------------------------------------------------------------------------------
b------------------------------------------------------------------------------
g-------------------------------------------------------5---------7--------0-
d-------6----/-----7----7----7------- 5------------5---------7--------0-
a-------6----/-----7----7----7--------5------------3---------5--------0-
e-------4------/---5----5----5--------3------------------------------------

Date: Sun, 12 Jan 1997 19:02:18 -0500 (EST)
From: [email protected]
Artist: Foo Fighters
Song: Enough Space
Album: unreleased as of now
TABbed by: Dave McBrayer
This song is simple once it hits the main riff. I'm not postive about
the solo I have tabbed. But hey, its pretty close. Thanks. Word is that
Foo plans to have this on the new CD.
STANDARD TUNING
Beginning: (this chord is hit a few times)
e---3 Then this:----3--3--3//-5 and that is done a few more times...
b---3 ----3--3--3//-5
g---x ----x--x--x//-0
d---5 ----5--5--5//-7
a---x ----x--x--0//-0
e---- -----------//--
And Then, get real powerful with this kicking main riff:
e-----------------------------------------------------------------
b-----------------------------------------------------------------
g-------5//6--x-------------------------------------------------
d-5----5//6--x---6//7-7--------(xabout 6 or 8 times)-
a-5----3//4--x---6//7-7--------------------------------------
e-3------------x--4//5-5--------------------------------------
that riff is repeated during the chorus.
Towards the chorus- the beginning riff is played:
SOLO:
(as close as I can figure out in 5 minutes)
e---------------------------------------------------------------
b---------------------------------------------------------------
g---------------------------------------------------------------
d--4-4--2-x///x-4-4--2-x///x-4-4--2-x///x-4-4--2-x////----------
a--4-4--2-x///x-4-4--2-x///x-4-4--2-x///x-4-4--2-x////----------
e--2-2--0-x///x-2-2--0-x///x-2-2--0-x///x-2-2--0-x////----------
e--x--x--x--15---(------(---------------------------------------
b--15-15-15-15-15--13--15-13---17-17-17-/x------------------------
g--x--x--x--x---------------------------/x------------------------
d--17-17-17-17--------------------------/x------------------------
a---------------------------------------/x------------------------
e---------------------------------------/x------------------------
back to main riff
Lyrics:
I was waiting for something, maybe flying machines.
Thats when I found Lily, the best I'd ever seen.
Only tried to Steal it, tryin to make it my own.
People line up to see, but there NEVER SEEMS TO BE ENOUGH SPACE!
(x2)
HOPE YOU ENJOY THE TAB! cant wait for the new album! will be out soon.
Email me at [email protected] for any questions, comments, corrections.




Ваше мнение



Капча