Date: Wed, 10 Apr 1996 22:47:42 -0300
To: [email protected]
Subject: TAB:Down in the park, by,Foo Fighters
Tabbed by Loel(foo foo)Campbell
Album:X-Files
Song:Down in the park
Band:Foo Fighters(Orignally done by Gary Newman)
THis Is a pretty simple song same chords as
penroyalm tea. Standard tuning the first play
along with the bass.
Chords used:
A B5 Af5 A5 G5 E
E|--0--| E|------| |-----| |-----| |-----| |----|
B|--2--| B|------| |-----| |-----| |-----| |----|
G|--2--| G|--4--| |--6-| |--0--| |--0-| |-0-|
D|--2--| D|--4--| |--6-| |--7--| |--5-| |-2-|
A|--0---| A|---2--| |--4-| |--7--| |--5-| |-2-|
E|-------| E|------| |-----| |--5--| |--3-| |-0-|
The First Part Goes:
AAAAAAAAAA,BBBBBBBBBB,AFAFAFAFAFAFAFAFAFAF
then repeat
The next part is:
A5..............G5................E................
and repeat
Then do the first part palm muted then do the second part again
then do the first part real fast.
Just listen to the record and get the beat!!!And thats it pretty simple huh.
Questions,Comments,and other stuff e-mail me at
[email protected]
Date: Mon, 9 Sep 1996 17:22:20 -0700
From: [email protected] (BILL HARRIS)
Subject: Tab for Down in the Park by the Foo Fighters
"Down in the Park" by the Foo Fighters
I'M ONLY PUTTING THE CORDS CAUSE I'M SO CRAPPY AT PLAYING THE
GUITAR A CAN'T FIGURE OUT THE REST.
THE FIRST PART THERE'S NO GUITAR
THEN
-----------------------------------------------------------------------
-----------------------------------------------------------------------
--5-5-5-5-5-5-5-5-/--7-7-7-7-7-7-7-7-----------------------------------
--5-5-5-5-5-5-5-5-/--7-7-7-7-7-7-7-7/--8-8-8-8-8-8-8-8-/--3-3-3-3-3-3-3
--3-3-3-3-3-3-3-3-/--5-5-5-5-5-5-5-5/--8-8-8-8-8-8-8-8-/--3-3-3-3-3-3-3
------------------------------------/--6-6-6-6-6-6-6-6-/--1-1-1-1-1-1-1
pm.....................................................................
-----------------------------------------------------------------------
-----------------------------------------------------------------------
--5-5-5-5-5-5-5-5-/--7-7-7-7-7-7-7-7-----------------------------------
--5-5-5-5-5-5-5-5-/--7-7-7-7-7-7-7-7--7-7-7-7-7-7-7-7------------------
--3-3-3-3-3-3-3-3-/--5-5-5-5-5-5-5-5--7-7-7-7-7-7-7-7------------------
--------------------------------------5-5-5-5-5-5-5-5------------------
pm.....................................................................
THEN W/DISTORTION
-----------------------------------------------------------------------
-----------------------------------------------------------------------
--5-5-5-5-5-5-5-5-/--7-7-7-7-7-7-7-7-----------------------------------
--5-5-5-5-5-5-5-5-/--7-7-7-7-7-7-7-7/--8-8-8-8-8-8-8-8-/--3-3-3-3-3-3-3
--3-3-3-3-3-3-3-3-/--5-5-5-5-5-5-5-5/--8-8-8-8-8-8-8-8-/--3-3-3-3-3-3-3
------------------------------------/--6-6-6-6-6-6-6-6-/--1-1-1-1-1-1-1
-----------------------------------------------------------------------
-----------------------------------------------------------------------
--5-5-5-5-5-5-5-5-/--7-7-7-7-7-7-7-7-----------------------------------
--5-5-5-5-5-5-5-5-/--7-7-7-7-7-7-7-7--7-7-7-7-7-7-7-7------------------
--3-3-3-3-3-3-3-3-/--5-5-5-5-5-5-5-5--7-7-7-7-7-7-7-7------------------
--------------------------------------5-5-5-5-5-5-5-5------------------
IF ANYONE FINDS THE SOLO OR ANY OF THE OTHER PARTS PLEASE E-MAIL IT TO
ME!!!
FIZbANx69




Ваше мнение



Капча