The other tab was out by a long shot.
heres the correct version
Standard Tuning
Intro riff and verse riff
(you will have to get the timing for yourself!)
e|---------2-----|
B|-------0---0---|
G|-----2-------2-|
D|---------------|
A|-0-2-----------|
E|---------------|
Chorus
1ST RIFF. THATS THE CORRECT RIFF BUT U NEED TO GET THE TIMING FOR THE B CHORD
e|---------2-|
B|---------0-|
G|---------2-|
D|---------X-|
A|-0-0-1-2-2-|
E|-----------|
THEN
e|-------0-|-2-|
B|-------0-|-3-|
G|-------1-|-2-|
D|-------2-|-0-|
A|-0-0-1-2-|---|
E|---------|---|
IM NOT TO SURE ABOUT THE FINAL BIT
ANY QUERIES
EMAIL ME AT [email protected]
THNAX




Ваше мнение



Капча