Foo Fighters
Disenchanted Lullaby

Intro/verse : Kind of weird timing
e|------------2-------------------2-----------------
b|----------0---0---------------0----0--------------
g|-------2--------2-----------2--------2------------
d|--------------------------------------------------
a|--0-2------------------0-2------------------------
E|--------------------------------------------------
ohhhhhhhhhh ahhhhhhhhh........

Fill 1 : only just audable
e|----2-2-------2-2-------2-2-----------2-2---------
b|--------------------------------------------------
g|--------------------------------------------------
d|--------------------------------------------------
a|--------------------------------------------------
E|--------------------------------------------------

Fill 2 : mute this part
e|--------------------------------------------------
b|--------------------------------------------------
g|--------------------------------------------------
d|--9-7-9-7------9-7-9-7----------------------------
a|--------------------------7/5-0-------------------
E|--------------------------------------------------

VERSE : (Also used in intro riff)
e|-----------2--------------------2-----------------
b|--------0-----0--------------0----0---------------
g|-----2-----------2--------2----------2------------
d|---2-------------------0--------------------------
a|--------------------------------------------------
E|--------------------------------------------------

Fill 1:
e|--------------------------------------------------
b|--------------------------------------------------
g|--------------------------------------------------
d|--------------------------------------------------
a|---5/7------9-------------------------------------
E|--------------------------------------------------

CHORUS : Distortion on
e|-----------2--2--2-2----2-2-2-2-------------------
b|-----------0--0--0-0----0-0-0-0-------------------
g|-----------2--2--2-2----2-2-2-2-----repeat--------
d|-----------x--x--x-x----x-x-x-x------a--few-------
a|--0-1-1-2--2--2--2-2----2-2-2-2--------times------
E|--------------------------------------------------

E D
e|-----------------------2--2--2--2-----------------
b|-----------------------3--3--3--3-----------------
g|---------1--1--1--1----2--2--2--2-----------------
d|---------2--2--2--2----0--0--0--0-----------------
a|--0-1-1--2--2--2--2-------------------------------
E|---------0--0--0--0-------------------------------
no one has a fit like I do...

INTERLUDE :
e|--------------------------------------------------
b|--------------------------------------------------
g|---------------7-------------------7--------------
d|--9-9-9----2---7-------9-9-9----7--7--------------
a|--9-9-9----2---5-------9-9-9----7--5--------------
E|--7-7-7----0------5-6--7-7-7----5-----5-6-and-repeat
ohhhhhhhhhhhh ohhhhhhhhhhhhh...

Fill :
e|---2-2-2-2-2-2-2-2-etc----4-4-4-4-4-4-4-4-|-2-ring-
b|------------------------------------------|--------
g|------------------------------------------|--------
d|------------------------------------------|--------
a|------------------------------------------|--------
E|------------------------------------------|--------




Ваше мнение



Капча