Foo Fighters - The Colour And The Shape
(Normal Tuning)
Intro/Verse
e||-----------------------------------||
B||-------------------------------9--||
G||-----------------------------------||
D||-----------------------------------||
A||-----------------------------------||
E||--2-2-2-2-2-2-2-0---^18-18-18*-----||
* pick while doing a whole bend then bending
back down to it's origional note.
Chorus
e||------------------------------------------||
B||------------------------------------------||
G||--------------------------7-7-7-10-10-10--||
D||--4-4-4-3-3-3-2-2-2-3-3-3-7-7-7-10-10-10--||
A||--4-4-4-3-3-3-2-2-2-3-3-3-5-5-5-8--8--8---||
E||--2-2-2-1-1-1-0-0-0-1-1-1-5-5-5-8--8--8---||
Interlude
e||--0------------------------0--||
B||--0------------------------0--||
G||--0------------------------0--||
D||--4------------------------4--||
A||--4------------------3-----4--||
E||--2------5-0-1-6-1-2---0-3-2--||




Ваше мнение



Капча